  0
SECTION
  2
HEADER
  9
$ACADVER
  1
AC1018
  9
$ACADMAINTVER
 70
     0
  9
$DWGCODEPAGE
  3
MAC-ROMAN
  9
$INSBASE
 10
0.0
 20
0.0
 30
0.0
  9
$EXTMIN
 10
1.000000000000000E+20
 20
1.000000000000000E+20
 30
1.000000000000000E+20
  9
$EXTMAX
 10
-1.000000000000000E+20
 20
-1.000000000000000E+20
 30
-1.000000000000000E+20
  9
$LIMMIN
 10
0.0
 20
0.0
  9
$LIMMAX
 10
12.0
 20
9.0
  9
$ORTHOMODE
 70
     0
  9
$REGENMODE
 70
     1
  9
$FILLMODE
 70
     1
  9
$QTEXTMODE
 70
     0
  9
$MIRRTEXT
 70
     1
  9
$LTSCALE
 40
1.0
  9
$ATTMODE
 70
     1
  9
$TEXTSIZE
 40
0.2
  9
$TRACEWID
 40
0.05
  9
$TEXTSTYLE
  7
Standard
  9
$CLAYER
  8
0
  9
$CELTYPE
  6
ByLayer
  9
$CECOLOR
 62
   256
  9
$CELTSCALE
 40
1.0
  9
$DISPSILH
 70
     0
  9
$DIMSCALE
 40
1.0
  9
$DIMASZ
 40
0.18
  9
$DIMEXO
 40
0.0625
  9
$DIMDLI
 40
0.38
  9
$DIMRND
 40
0.0
  9
$DIMDLE
 40
0.0
  9
$DIMEXE
 40
0.18
  9
$DIMTP
 40
0.0
  9
$DIMTM
 40
0.0
  9
$DIMTXT
 40
0.18
  9
$DIMCEN
 40
0.09
  9
$DIMTSZ
 40
0.0
  9
$DIMTOL
 70
     0
  9
$DIMLIM
 70
     0
  9
$DIMTIH
 70
     1
  9
$DIMTOH
 70
     1
  9
$DIMSE1
 70
     0
  9
$DIMSE2
 70
     0
  9
$DIMTAD
 70
     0
  9
$DIMZIN
 70
     0
  9
$DIMBLK
  1

  9
$DIMASO
 70
     1
  9
$DIMSHO
 70
     1
  9
$DIMPOST
  1

  9
$DIMAPOST
  1

  9
$DIMALT
 70
     0
  9
$DIMALTD
 70
     2
  9
$DIMALTF
 40
25.4
  9
$DIMLFAC
 40
1.0
  9
$DIMTOFL
 70
     0
  9
$DIMTVP
 40
0.0
  9
$DIMTIX
 70
     0
  9
$DIMSOXD
 70
     0
  9
$DIMSAH
 70
     0
  9
$DIMBLK1
  1

  9
$DIMBLK2
  1

  9
$DIMSTYLE
  2
Standard
  9
$DIMCLRD
 70
     0
  9
$DIMCLRE
 70
     0
  9
$DIMCLRT
 70
     0
  9
$DIMTFAC
 40
1.0
  9
$DIMGAP
 40
0.09
  9
$DIMJUST
 70
     0
  9
$DIMSD1
 70
     0
  9
$DIMSD2
 70
     0
  9
$DIMTOLJ
 70
     1
  9
$DIMTZIN
 70
     0
  9
$DIMALTZ
 70
     0
  9
$DIMALTTZ
 70
     0
  9
$DIMUPT
 70
     0
  9
$DIMDEC
 70
     4
  9
$DIMTDEC
 70
     4
  9
$DIMALTU
 70
     2
  9
$DIMALTTD
 70
     2
  9
$DIMTXSTY
  7
Standard
  9
$DIMAUNIT
 70
     0
  9
$DIMADEC
 70
     0
  9
$DIMALTRND
 40
0.0
  9
$DIMAZIN
 70
     0
  9
$DIMDSEP
 70
    46
  9
$DIMATFIT
 70
     3
  9
$DIMFRAC
 70
     0
  9
$DIMLDRBLK
  1

  9
$DIMLUNIT
 70
     2
  9
$DIMLWD
 70
    -2
  9
$DIMLWE
 70
    -2
  9
$DIMTMOVE
 70
     0
  9
$LUNITS
 70
     2
  9
$LUPREC
 70
     4
  9
$SKETCHINC
 40
0.1
  9
$FILLETRAD
 40
0.5
  9
$AUNITS
 70
     0
  9
$AUPREC
 70
     0
  9
$MENU
  1
.
  9
$ELEVATION
 40
0.0
  9
$PELEVATION
 40
0.0
  9
$THICKNESS
 40
0.0
  9
$LIMCHECK
 70
     0
  9
$CHAMFERA
 40
0.5
  9
$CHAMFERB
 40
0.5
  9
$CHAMFERC
 40
1.0
  9
$CHAMFERD
 40
0.0
  9
$SKPOLY
 70
     0
  9
$TDCREATE
 40
2455675.574247685
  9
$TDUCREATE
 40
2455675.720081019
  9
$TDUPDATE
 40
2455675.574247697
  9
$TDUUPDATE
 40
2455675.72008103
  9
$TDINDWG
 40
0.0000000116
  9
$TDUSRTIMER
 40
0.0000000116
  9
$USRTIMER
 70
     1
  9
$ANGBASE
 50
0.0
  9
$ANGDIR
 70
     0
  9
$PDMODE
 70
     0
  9
$PDSIZE
 40
0.0
  9
$PLINEWID
 40
0.0
  9
$SPLFRAME
 70
     0
  9
$SPLINETYPE
 70
     6
  9
$SPLINESEGS
 70
     8
  9
$HANDSEED
  5
1AD
  9
$SURFTAB1
 70
     6
  9
$SURFTAB2
 70
     6
  9
$SURFTYPE
 70
     6
  9
$SURFU
 70
     6
  9
$SURFV
 70
     6
  9
$UCSBASE
  2

  9
$UCSNAME
  2

  9
$UCSORG
 10
0.0
 20
0.0
 30
0.0
  9
$UCSXDIR
 10
1.0
 20
0.0
 30
0.0
  9
$UCSYDIR
 10
0.0
 20
1.0
 30
0.0
  9
$UCSORTHOREF
  2

  9
$UCSORTHOVIEW
 70
     0
  9
$UCSORGTOP
 10
0.0
 20
0.0
 30
0.0
  9
$UCSORGBOTTOM
 10
0.0
 20
0.0
 30
0.0
  9
$UCSORGLEFT
 10
0.0
 20
0.0
 30
0.0
  9
$UCSORGRIGHT
 10
0.0
 20
0.0
 30
0.0
  9
$UCSORGFRONT
 10
0.0
 20
0.0
 30
0.0
  9
$UCSORGBACK
 10
0.0
 20
0.0
 30
0.0
  9
$PUCSBASE
  2

  9
$PUCSNAME
  2

  9
$PUCSORG
 10
0.0
 20
0.0
 30
0.0
  9
$PUCSXDIR
 10
1.0
 20
0.0
 30
0.0
  9
$PUCSYDIR
 10
0.0
 20
1.0
 30
0.0
  9
$PUCSORTHOREF
  2

  9
$PUCSORTHOVIEW
 70
     0
  9
$PUCSORGTOP
 10
0.0
 20
0.0
 30
0.0
  9
$PUCSORGBOTTOM
 10
0.0
 20
0.0
 30
0.0
  9
$PUCSORGLEFT
 10
0.0
 20
0.0
 30
0.0
  9
$PUCSORGRIGHT
 10
0.0
 20
0.0
 30
0.0
  9
$PUCSORGFRONT
 10
0.0
 20
0.0
 30
0.0
  9
$PUCSORGBACK
 10
0.0
 20
0.0
 30
0.0
  9
$USERI1
 70
     0
  9
$USERI2
 70
     0
  9
$USERI3
 70
     0
  9
$USERI4
 70
     0
  9
$USERI5
 70
     0
  9
$USERR1
 40
0.0
  9
$USERR2
 40
0.0
  9
$USERR3
 40
0.0
  9
$USERR4
 40
0.0
  9
$USERR5
 40
0.0
  9
$WORLDVIEW
 70
     1
  9
$SHADEDGE
 70
     3
  9
$SHADEDIF
 70
    70
  9
$TILEMODE
 70
     1
  9
$MAXACTVP
 70
    64
  9
$PINSBASE
 10
0.0
 20
0.0
 30
0.0
  9
$PLIMCHECK
 70
     0
  9
$PEXTMIN
 10
0.0
 20
0.0
 30
0.0
  9
$PEXTMAX
 10
0.0
 20
0.0
 30
0.0
  9
$PLIMMIN
 10
-0.25
 20
-0.25
  9
$PLIMMAX
 10
10.75
 20
8.25
  9
$UNITMODE
 70
     0
  9
$VISRETAIN
 70
     1
  9
$PLINEGEN
 70
     0
  9
$PSLTSCALE
 70
     1
  9
$TREEDEPTH
 70
  3020
  9
$CMLSTYLE
  2
Standard
  9
$CMLJUST
 70
     0
  9
$CMLSCALE
 40
1.0
  9
$PROXYGRAPHICS
 70
     1
  9
$MEASUREMENT
 70
     0
  9
$CELWEIGHT
370
    -1
  9
$ENDCAPS
280
     0
  9
$JOINSTYLE
280
     0
  9
$LWDISPLAY
290
     0
  9
$INSUNITS
 70
     1
  9
$HYPERLINKBASE
  1

  9
$STYLESHEET
  1

  9
$XEDIT
290
     1
  9
$CEPSNTYPE
380
     0
  9
$PSTYLEMODE
290
     1
  9
$FINGERPRINTGUID
  2
{5E61B22B-3601-99EE-3429-F076822704B6}
  9
$VERSIONGUID
  2
{FAEB1C32-E019-11D5-929B-00C0DF256EC4}
  9
$EXTNAMES
290
     1
  9
$PSVPSCALE
 40
0.0
  9
$OLESTARTUP
290
     0
  9
$SORTENTS
280
   127
  9
$INDEXCTL
280
     0
  9
$HIDETEXT
280
     1
  9
$XCLIPFRAME
290
     0
  9
$HALOGAP
280
     0
  9
$OBSCOLOR
 70
   257
  9
$OBSLTYPE
280
     0
  9
$INTERSECTIONDISPLAY
280
     0
  9
$INTERSECTIONCOLOR
 70
   257
  9
$DIMASSOC
280
     2
  9
$PROJECTNAME
  1

  0
ENDSEC
  0
SECTION
  2
CLASSES
  0
CLASS
  1
ACDBDICTIONARYWDFLT
  2
AcDbDictionaryWithDefault
  3
ObjectDBX Classes
 90
        0
 91
        4
280
     0
281
     0
  0
CLASS
  1
VISUALSTYLE
  2
AcDbVisualStyle
  3
ObjectDBX Classes
 90
     4095
 91
        4
280
     0
281
     0
  0
CLASS
  1
SCALE
  2
AcDbScale
  3
ObjectDBX Classes
 90
     1153
 91
        4
280
     0
281
     0
  0
CLASS
  1
DICTIONARYVAR
  2
AcDbDictionaryVar
  3
ObjectDBX Classes
 90
        0
 91
        4
280
     0
281
     0
  0
ENDSEC
  0
SECTION
  2
TABLES
  0
TABLE
  2
VPORT
  5
8
330
0
100
AcDbSymbolTable
 70
     1
  0
VPORT
  5
29
330
8
100
AcDbSymbolTableRecord
100
AcDbViewportTableRecord
  2
*Active
 70
     0
 10
0.0
 20
0.0
 11
1.0
 21
1.0
 12
3.752814542541953
 22
-5.000332771075781
 13
0.0
 23
0.0
 14
0.5
 24
0.5
 15
0.5
 25
0.5
 16
0.0
 26
0.0
 36
1.0
 17
0.0
 27
0.0
 37
0.0
 40
8.961073255507678
 41
0.5248876705540237
 42
50.0
 43
0.0
 44
0.0
 50
0.0
 51
0.0
 71
     0
 72
   100
 73
     1
 74
     3
 75
     0
 76
     0
 77
     0
 78
     0
281
     0
 65
     1
110
0.0
120
0.0
130
0.0
111
1.0
121
0.0
131
0.0
112
0.0
122
1.0
132
0.0
 79
     0
146
0.0
  0
ENDTAB
  0
TABLE
  2
LTYPE
  5
5
330
0
100
AcDbSymbolTable
 70
     3
  0
LTYPE
  5
14
330
5
100
AcDbSymbolTableRecord
100
AcDbLinetypeTableRecord
  2
ByBlock
 70
     0
  3

 72
    65
 73
     0
 40
0.0
  0
LTYPE
  5
15
330
5
100
AcDbSymbolTableRecord
100
AcDbLinetypeTableRecord
  2
ByLayer
 70
     0
  3

 72
    65
 73
     0
 40
0.0
  0
LTYPE
  5
16
330
5
100
AcDbSymbolTableRecord
100
AcDbLinetypeTableRecord
  2
Continuous
 70
     0
  3
Solid line
 72
    65
 73
     0
 40
0.0
  0
LTYPE
  5
16E
330
5
100
AcDbSymbolTableRecord
100
AcDbLinetypeTableRecord
  2
PC_DASH_1
 70
     0
  3
short-dash - - - 
 72
    65
 73
     2
 40
0.125
 49
0.0555555555555556
 74
     0
 49
-0.0694444444444444
 74
     0
  0
LTYPE
  5
184
330
5
100
AcDbSymbolTableRecord
100
AcDbLinetypeTableRecord
  2
PC_DASH_2
 70
     0
  3
short-dash - - - 
 72
    65
 73
     2
 40
0.0694444444444444
 49
0.0277777777777778
 74
     0
 49
-0.0416666666666667
 74
     0
  0
ENDTAB
  0
TABLE
  2
LAYER
  5
2
330
0
100
AcDbSymbolTable
 70
     2
  0
LAYER
  5
10
330
2
100
AcDbSymbolTableRecord
100
AcDbLayerTableRecord
  2
0
 70
     0
 62
     7
  6
Continuous
370
    -3
390
F
  0
LAYER
  5
3B
330
2
100
AcDbSymbolTableRecord
100
AcDbLayerTableRecord
  2
Printable Overlay
 70
     0
 62
     7
  6
Continuous
370
    -3
390
F
  0
ENDTAB
  0
TABLE
  2
STYLE
  5
3
330
0
100
AcDbSymbolTable
 70
     1
  0
STYLE
  5
11
330
3
100
AcDbSymbolTableRecord
100
AcDbTextStyleTableRecord
  2
Standard
 70
     0
 40
0.0
 41
1.0
 50
0.0
 71
     0
 42
0.2
  3
txt
  4

  0
ENDTAB
  0
TABLE
  2
VIEW
  5
6
330
0
100
AcDbSymbolTable
 70
     0
  0
ENDTAB
  0
TABLE
  2
UCS
  5
7
330
0
100
AcDbSymbolTable
 70
     0
  0
ENDTAB
  0
TABLE
  2
APPID
  5
9
330
0
100
AcDbSymbolTable
 70
     1
  0
APPID
  5
12
330
9
100
AcDbSymbolTableRecord
100
AcDbRegAppTableRecord
  2
ACAD
 70
     0
  0
ENDTAB
  0
TABLE
  2
DIMSTYLE
  5
A
330
0
100
AcDbSymbolTable
 70
     1
100
AcDbDimStyleTable
  0
DIMSTYLE
105
27
330
A
100
AcDbSymbolTableRecord
100
AcDbDimStyleTableRecord
  2
Standard
 70
     0
340
11
  0
ENDTAB
  0
TABLE
  2
BLOCK_RECORD
  5
1
330
0
100
AcDbSymbolTable
 70
    16
  0
BLOCK_RECORD
  5
1F
330
1
100
AcDbSymbolTableRecord
100
AcDbBlockTableRecord
  2
*Model_Space
340
22
  0
BLOCK_RECORD
  5
1A3
330
1
100
AcDbSymbolTableRecord
100
AcDbBlockTableRecord
  2
*Paper_Space
340
1A4
  0
BLOCK_RECORD
  5
61
330
1
100
AcDbSymbolTableRecord
100
AcDbBlockTableRecord
  2
PD_35442
340
0
102
{BLKREFS
331
74
102
}
  0
BLOCK_RECORD
  5
75
330
1
100
AcDbSymbolTableRecord
100
AcDbBlockTableRecord
  2
PD_35443
340
0
102
{BLKREFS
331
98
102
}
  0
BLOCK_RECORD
  5
99
330
1
100
AcDbSymbolTableRecord
100
AcDbBlockTableRecord
  2
PD_35444
340
0
102
{BLKREFS
331
AC
102
}
  0
BLOCK_RECORD
  5
AD
330
1
100
AcDbSymbolTableRecord
100
AcDbBlockTableRecord
  2
PD_35445
340
0
102
{BLKREFS
331
D0
102
}
  0
BLOCK_RECORD
  5
D1
330
1
100
AcDbSymbolTableRecord
100
AcDbBlockTableRecord
  2
PD_35446
340
0
102
{BLKREFS
331
E4
102
}
  0
BLOCK_RECORD
  5
E5
330
1
100
AcDbSymbolTableRecord
100
AcDbBlockTableRecord
  2
PD_35447
340
0
102
{BLKREFS
331
108
102
}
  0
BLOCK_RECORD
  5
109
330
1
100
AcDbSymbolTableRecord
100
AcDbBlockTableRecord
  2
PD_35448
340
0
102
{BLKREFS
331
119
102
}
  0
BLOCK_RECORD
  5
11A
330
1
100
AcDbSymbolTableRecord
100
AcDbBlockTableRecord
  2
PD_35449
340
0
102
{BLKREFS
331
127
102
}
  0
BLOCK_RECORD
  5
12A
330
1
100
AcDbSymbolTableRecord
100
AcDbBlockTableRecord
  2
PD_35450
340
0
102
{BLKREFS
331
135
102
}
  0
BLOCK_RECORD
  5
136
330
1
100
AcDbSymbolTableRecord
100
AcDbBlockTableRecord
  2
PD_35451
340
0
102
{BLKREFS
331
144
102
}
  0
BLOCK_RECORD
  5
145
330
1
100
AcDbSymbolTableRecord
100
AcDbBlockTableRecord
  2
PD_35452
340
0
102
{BLKREFS
331
153
102
}
  0
BLOCK_RECORD
  5
156
330
1
100
AcDbSymbolTableRecord
100
AcDbBlockTableRecord
  2
PD_35453
340
0
102
{BLKREFS
331
163
102
}
  0
BLOCK_RECORD
  5
164
330
1
100
AcDbSymbolTableRecord
100
AcDbBlockTableRecord
  2
PD_35454
340
0
102
{BLKREFS
331
16D
102
}
  0
BLOCK_RECORD
  5
197
330
1
100
AcDbSymbolTableRecord
100
AcDbBlockTableRecord
  2
PD_35455
340
0
102
{BLKREFS
331
1A2
102
}
  0
ENDTAB
  0
ENDSEC
  0
SECTION
  2
BLOCKS
  0
BLOCK
  5
20
330
1F
100
AcDbEntity
  8
0
100
AcDbBlockBegin
  2
*Model_Space
 70
     0
 10
0.0
 20
0.0
 30
0.0
  3
*Model_Space
  1

  0
ENDBLK
  5
21
330
1F
100
AcDbEntity
  8
0
100
AcDbBlockEnd
  0
BLOCK
  5
1A5
330
1A3
100
AcDbEntity
 67
     1
  8
0
100
AcDbBlockBegin
  2
*Paper_Space
 70
     0
 10
0.0
 20
0.0
 30
0.0
  3
*Paper_Space
  1

  0
ENDBLK
  5
1A6
330
1A3
100
AcDbEntity
 67
     1
  8
0
100
AcDbBlockEnd
  0
BLOCK
  5
72
330
61
100
AcDbEntity
  8
0
100
AcDbBlockBegin
  2
PD_35442
 70
     0
 10
0.0
 20
0.0
 30
0.0
  3
PD_35442
  1

  0
POLYLINE
  5
62
330
61
100
AcDbEntity
  8
Printable Overlay
 62
     0
100
AcDb2dPolyline
 66
     1
 10
0.0
 20
0.0
 30
0.0
  0
VERTEX
  5
63
330
62
100
AcDbEntity
  8
Printable Overlay
 62
     0
100
AcDbVertex
100
AcDb2dVertex
 10
2.713602918471035
 20
-3.155816555970949
 30
0.0
  0
VERTEX
  5
64
330
62
100
AcDbEntity
  8
Printable Overlay
 62
     0
100
AcDbVertex
100
AcDb2dVertex
 10
2.754327131836293
 20
-3.13534625691702
 30
0.0
  0
VERTEX
  5
65
330
62
100
AcDbEntity
  8
Printable Overlay
 62
     0
100
AcDbVertex
100
AcDb2dVertex
 10
2.798138364054985
 20
-3.122773642667938
 30
0.0
  0
VERTEX
  5
66
330
62
100
AcDbEntity
  8
Printable Overlay
 62
     0
100
AcDbVertex
100
AcDb2dVertex
 10
2.843520286886735
 20
-3.118533857570844
 30
0.0
  0
VERTEX
  5
67
330
62
100
AcDbEntity
  8
Printable Overlay
 62
     0
100
AcDbVertex
100
AcDb2dVertex
 10
2.888902209718484
 20
-3.122773642667939
 30
0.0
  0
VERTEX
  5
68
330
62
100
AcDbEntity
  8
Printable Overlay
 62
     0
100
AcDbVertex
100
AcDb2dVertex
 10
2.932713441937175
 20
-3.135346256917021
 30
0.0
  0
VERTEX
  5
69
330
62
100
AcDbEntity
  8
Printable Overlay
 62
     0
100
AcDbVertex
100
AcDb2dVertex
 10
2.973437655302433
 20
-3.155816555970951
 30
0.0
  0
VERTEX
  5
6A
330
62
100
AcDbEntity
  8
Printable Overlay
 62
     0
100
AcDbVertex
100
AcDb2dVertex
 10
2.900872196650071
 20
-2.878288565864513
 30
0.0
  0
VERTEX
  5
6B
330
62
100
AcDbEntity
  8
Printable Overlay
 62
     0
100
AcDbVertex
100
AcDb2dVertex
 10
2.843520286886735
 20
-2.597222222222224
 30
0.0
  0
VERTEX
  5
6C
330
62
100
AcDbEntity
  8
Printable Overlay
 62
     0
100
AcDbVertex
100
AcDb2dVertex
 10
2.786168377123396
 20
-2.878288565864511
 30
0.0
  0
VERTEX
  5
6D
330
62
100
AcDbEntity
  8
Printable Overlay
 62
     0
100
AcDbVertex
100
AcDb2dVertex
 10
2.713602918471034
 20
-3.155816555970949
 30
0.0
  0
SEQEND
  5
6E
330
62
100
AcDbEntity
  8
Printable Overlay
 62
     0
  0
ARC
  5
6F
330
61
100
AcDbEntity
  8
Printable Overlay
 62
     0
100
AcDbCircle
 10
2.843520286886732
 20
-3.363533857570873
 30
0.0
 40
0.2450000000000282
100
AcDbArc
 50
57.97596446416417
 51
122.024035535835
  0
ARC
  5
70
330
61
100
AcDbEntity
  8
Printable Overlay
 62
     0
100
AcDbCircle
 10
8.032138478497608
 20
-1.684863262918791
 30
0.0
 40
5.268221484423043
100
AcDbArc
 50
189.972855068469
 51
196.213209900936
  0
ARC
  5
71
330
61
100
AcDbEntity
  8
Printable Overlay
 62
     0
100
AcDbCircle
 10
-2.345097904724142
 20
-1.684863262918791
 30
0.0
 40
5.268221484423044
100
AcDbArc
 50
343.786790099064
 51
350.027144931531
  0
ENDBLK
  5
73
330
61
100
AcDbEntity
  8
0
100
AcDbBlockEnd
  0
BLOCK
  5
96
330
75
100
AcDbEntity
  8
0
100
AcDbBlockBegin
  2
PD_35443
 70
     0
 10
0.0
 20
0.0
 30
0.0
  3
PD_35443
  1

  0
POLYLINE
  5
76
330
75
100
AcDbEntity
  8
Printable Overlay
 62
     0
100
AcDb2dPolyline
 66
     1
 10
0.0
 20
0.0
 30
0.0
  0
VERTEX
  5
77
330
76
100
AcDbEntity
  8
Printable Overlay
 62
     0
100
AcDbVertex
100
AcDb2dVertex
 10
2.616553162344438
 20
-3.455788528872652
 30
0.0
  0
VERTEX
  5
78
330
76
100
AcDbEntity
  8
Printable Overlay
 62
     0
100
AcDbVertex
100
AcDb2dVertex
 10
2.637034671751691
 20
-3.495400042555108
 30
0.0
  0
VERTEX
  5
79
330
76
100
AcDbEntity
  8
Printable Overlay
 62
     0
100
AcDbVertex
100
AcDb2dVertex
 10
2.664356829407499
 20
-3.530642970141306
 30
0.0
  0
VERTEX
  5
7A
330
76
100
AcDbEntity
  8
Printable Overlay
 62
     0
100
AcDbVertex
100
AcDb2dVertex
 10
2.697614481363039
 20
-3.560349751020744
 30
0.0
  0
VERTEX
  5
7B
330
76
100
AcDbEntity
  8
Printable Overlay
 62
     0
100
AcDbVertex
100
AcDb2dVertex
 10
2.735705837072505
 20
-3.583536231219984
 30
0.0
  0
VERTEX
  5
7C
330
76
100
AcDbEntity
  8
Printable Overlay
 62
     0
100
AcDbVertex
100
AcDb2dVertex
 10
2.777368970539025
 20
-3.599434267374356
 30
0.0
  0
VERTEX
  5
7D
330
76
100
AcDbEntity
  8
Printable Overlay
 62
     0
100
AcDbVertex
100
AcDb2dVertex
 10
2.821223626577312
 20
-3.607517174498551
 30
0.0
  0
VERTEX
  5
7E
330
76
100
AcDbEntity
  8
Printable Overlay
 62
     0
100
AcDbVertex
100
AcDb2dVertex
 10
2.865816947196154
 20
-3.607517174498551
 30
0.0
  0
VERTEX
  5
7F
330
76
100
AcDbEntity
  8
Printable Overlay
 62
     0
100
AcDbVertex
100
AcDb2dVertex
 10
2.909671603234441
 20
-3.599434267374357
 30
0.0
  0
VERTEX
  5
80
330
76
100
AcDbEntity
  8
Printable Overlay
 62
     0
100
AcDbVertex
100
AcDb2dVertex
 10
2.95133473670096
 20
-3.583536231219984
 30
0.0
  0
VERTEX
  5
81
330
76
100
AcDbEntity
  8
Printable Overlay
 62
     0
100
AcDbVertex
100
AcDb2dVertex
 10
2.989426092410426
 20
-3.560349751020745
 30
0.0
  0
VERTEX
  5
82
330
76
100
AcDbEntity
  8
Printable Overlay
 62
     0
100
AcDbVertex
100
AcDb2dVertex
 10
3.022683744365967
 20
-3.530642970141308
 30
0.0
  0
VERTEX
  5
83
330
76
100
AcDbEntity
  8
Printable Overlay
 62
     0
100
AcDbVertex
100
AcDb2dVertex
 10
3.050005902021776
 20
-3.495400042555111
 30
0.0
  0
VERTEX
  5
84
330
76
100
AcDbEntity
  8
Printable Overlay
 62
     0
100
AcDbVertex
100
AcDb2dVertex
 10
3.070487411429028
 20
-3.455788528872654
 30
0.0
  0
VERTEX
  5
85
330
76
100
AcDbEntity
  8
Printable Overlay
 62
     0
100
AcDbVertex
100
AcDb2dVertex
 10
3.188520286886736
 20
-3.756944444444446
 30
0.0
  0
VERTEX
  5
86
330
76
100
AcDbEntity
  8
Printable Overlay
 62
     0
100
AcDbVertex
100
AcDb2dVertex
 10
3.188520286886734
 20
-3.756944444444446
 30
0.0
  0
VERTEX
  5
87
330
76
100
AcDbEntity
  8
Printable Overlay
 62
     0
100
AcDbVertex
100
AcDb2dVertex
 10
3.115902219885877
 20
-3.72439805061249
 30
0.0
  0
VERTEX
  5
88
330
76
100
AcDbEntity
  8
Printable Overlay
 62
     0
100
AcDbVertex
100
AcDb2dVertex
 10
3.040264681273207
 20
-3.699667216436861
 30
0.0
  0
VERTEX
  5
89
330
76
100
AcDbEntity
  8
Printable Overlay
 62
     0
100
AcDbVertex
100
AcDb2dVertex
 10
2.96244614589951
 20
-3.683026093917685
 30
0.0
  0
VERTEX
  5
8A
330
76
100
AcDbEntity
  8
Printable Overlay
 62
     0
100
AcDbVertex
100
AcDb2dVertex
 10
2.883309265908585
 20
-3.674659157100216
 30
0.0
  0
VERTEX
  5
8B
330
76
100
AcDbEntity
  8
Printable Overlay
 62
     0
100
AcDbVertex
100
AcDb2dVertex
 10
2.80373130786488
 20
-3.674659157100216
 30
0.0
  0
VERTEX
  5
8C
330
76
100
AcDbEntity
  8
Printable Overlay
 62
     0
100
AcDbVertex
100
AcDb2dVertex
 10
2.724594427873955
 20
-3.683026093917684
 30
0.0
  0
VERTEX
  5
8D
330
76
100
AcDbEntity
  8
Printable Overlay
 62
     0
100
AcDbVertex
100
AcDb2dVertex
 10
2.646775892500258
 20
-3.699667216436861
 30
0.0
  0
VERTEX
  5
8E
330
76
100
AcDbEntity
  8
Printable Overlay
 62
     0
100
AcDbVertex
100
AcDb2dVertex
 10
2.571138353887588
 20
-3.72439805061249
 30
0.0
  0
VERTEX
  5
8F
330
76
100
AcDbEntity
  8
Printable Overlay
 62
     0
100
AcDbVertex
100
AcDb2dVertex
 10
2.498520286886731
 20
-3.756944444444446
 30
0.0
  0
VERTEX
  5
90
330
76
100
AcDbEntity
  8
Printable Overlay
 62
     0
100
AcDbVertex
100
AcDb2dVertex
 10
2.616553162344438
 20
-3.455788528872653
 30
0.0
  0
SEQEND
  5
91
330
76
100
AcDbEntity
  8
Printable Overlay
 62
     0
  0
ARC
  5
92
330
75
100
AcDbEntity
  8
Printable Overlay
 62
     0
100
AcDbCircle
 10
2.843520286886734
 20
-3.363533857570836
 30
0.0
 40
0.2450000000000077
100
AcDbArc
 50
202.1201248752018
 51
337.8798751247976
  0
ARC
  5
93
330
75
100
AcDbEntity
  8
Printable Overlay
 62
     0
100
AcDbCircle
 10
8.032138478497608
 20
-1.684863262918791
 30
0.0
 40
5.268221484423043
100
AcDbArc
 50
199.6426296880249
 51
203.1610522508579
  0
ARC
  5
94
330
75
100
AcDbEntity
  8
Printable Overlay
 62
     0
100
AcDbCircle
 10
2.843520286886732
 20
-4.429427777777778
 30
0.0
 40
0.7558166666666662
100
AcDbArc
 50
62.84109383662148
 51
117.1589061633782
  0
ARC
  5
95
330
75
100
AcDbEntity
  8
Printable Overlay
 62
     0
100
AcDbCircle
 10
-2.345097904724142
 20
-1.684863262918791
 30
0.0
 40
5.268221484423044
100
AcDbArc
 50
336.8389477491421
 51
340.3573703119751
  0
ENDBLK
  5
97
330
75
100
AcDbEntity
  8
0
100
AcDbBlockEnd
  0
BLOCK
  5
AA
330
99
100
AcDbEntity
  8
0
100
AcDbBlockBegin
  2
PD_35444
 70
     0
 10
0.0
 20
0.0
 30
0.0
  3
PD_35444
  1

  0
POLYLINE
  5
9A
330
99
100
AcDbEntity
  8
Printable Overlay
 62
     0
100
AcDb2dPolyline
 66
     1
 10
0.0
 20
0.0
 30
0.0
  0
VERTEX
  5
9B
330
9A
100
AcDbEntity
  8
Printable Overlay
 62
     0
100
AcDbVertex
100
AcDb2dVertex
 10
3.613602918471035
 20
-3.155816555970949
 30
0.0
  0
VERTEX
  5
9C
330
9A
100
AcDbEntity
  8
Printable Overlay
 62
     0
100
AcDbVertex
100
AcDb2dVertex
 10
3.654327131836293
 20
-3.13534625691702
 30
0.0
  0
VERTEX
  5
9D
330
9A
100
AcDbEntity
  8
Printable Overlay
 62
     0
100
AcDbVertex
100
AcDb2dVertex
 10
3.698138364054985
 20
-3.122773642667938
 30
0.0
  0
VERTEX
  5
9E
330
9A
100
AcDbEntity
  8
Printable Overlay
 62
     0
100
AcDbVertex
100
AcDb2dVertex
 10
3.743520286886735
 20
-3.118533857570844
 30
0.0
  0
VERTEX
  5
9F
330
9A
100
AcDbEntity
  8
Printable Overlay
 62
     0
100
AcDbVertex
100
AcDb2dVertex
 10
3.788902209718484
 20
-3.122773642667939
 30
0.0
  0
VERTEX
  5
A0
330
9A
100
AcDbEntity
  8
Printable Overlay
 62
     0
100
AcDbVertex
100
AcDb2dVertex
 10
3.832713441937175
 20
-3.135346256917021
 30
0.0
  0
VERTEX
  5
A1
330
9A
100
AcDbEntity
  8
Printable Overlay
 62
     0
100
AcDbVertex
100
AcDb2dVertex
 10
3.873437655302433
 20
-3.155816555970951
 30
0.0
  0
VERTEX
  5
A2
330
9A
100
AcDbEntity
  8
Printable Overlay
 62
     0
100
AcDbVertex
100
AcDb2dVertex
 10
3.800872196650071
 20
-2.878288565864513
 30
0.0
  0
VERTEX
  5
A3
330
9A
100
AcDbEntity
  8
Printable Overlay
 62
     0
100
AcDbVertex
100
AcDb2dVertex
 10
3.743520286886735
 20
-2.597222222222224
 30
0.0
  0
VERTEX
  5
A4
330
9A
100
AcDbEntity
  8
Printable Overlay
 62
     0
100
AcDbVertex
100
AcDb2dVertex
 10
3.686168377123396
 20
-2.878288565864511
 30
0.0
  0
VERTEX
  5
A5
330
9A
100
AcDbEntity
  8
Printable Overlay
 62
     0
100
AcDbVertex
100
AcDb2dVertex
 10
3.613602918471034
 20
-3.155816555970949
 30
0.0
  0
SEQEND
  5
A6
330
9A
100
AcDbEntity
  8
Printable Overlay
 62
     0
  0
ARC
  5
A7
330
99
100
AcDbEntity
  8
Printable Overlay
 62
     0
100
AcDbCircle
 10
3.743520286886732
 20
-3.363533857570873
 30
0.0
 40
0.2450000000000282
100
AcDbArc
 50
57.97596446416417
 51
122.024035535835
  0
ARC
  5
A8
330
99
100
AcDbEntity
  8
Printable Overlay
 62
     0
100
AcDbCircle
 10
8.932138478497608
 20
-1.684863262918791
 30
0.0
 40
5.268221484423043
100
AcDbArc
 50
189.972855068469
 51
196.213209900936
  0
ARC
  5
A9
330
99
100
AcDbEntity
  8
Printable Overlay
 62
     0
100
AcDbCircle
 10
-1.445097904724143
 20
-1.684863262918791
 30
0.0
 40
5.268221484423045
100
AcDbArc
 50
343.786790099064
 51
350.027144931531
  0
ENDBLK
  5
AB
330
99
100
AcDbEntity
  8
0
100
AcDbBlockEnd
  0
BLOCK
  5
CE
330
AD
100
AcDbEntity
  8
0
100
AcDbBlockBegin
  2
PD_35445
 70
     0
 10
0.0
 20
0.0
 30
0.0
  3
PD_35445
  1

  0
POLYLINE
  5
AE
330
AD
100
AcDbEntity
  8
Printable Overlay
 62
     0
100
AcDb2dPolyline
 66
     1
 10
0.0
 20
0.0
 30
0.0
  0
VERTEX
  5
AF
330
AE
100
AcDbEntity
  8
Printable Overlay
 62
     0
100
AcDbVertex
100
AcDb2dVertex
 10
3.516553162344439
 20
-3.455788528872652
 30
0.0
  0
VERTEX
  5
B0
330
AE
100
AcDbEntity
  8
Printable Overlay
 62
     0
100
AcDbVertex
100
AcDb2dVertex
 10
3.537034671751691
 20
-3.495400042555108
 30
0.0
  0
VERTEX
  5
B1
330
AE
100
AcDbEntity
  8
Printable Overlay
 62
     0
100
AcDbVertex
100
AcDb2dVertex
 10
3.564356829407499
 20
-3.530642970141306
 30
0.0
  0
VERTEX
  5
B2
330
AE
100
AcDbEntity
  8
Printable Overlay
 62
     0
100
AcDbVertex
100
AcDb2dVertex
 10
3.597614481363039
 20
-3.560349751020744
 30
0.0
  0
VERTEX
  5
B3
330
AE
100
AcDbEntity
  8
Printable Overlay
 62
     0
100
AcDbVertex
100
AcDb2dVertex
 10
3.635705837072505
 20
-3.583536231219984
 30
0.0
  0
VERTEX
  5
B4
330
AE
100
AcDbEntity
  8
Printable Overlay
 62
     0
100
AcDbVertex
100
AcDb2dVertex
 10
3.677368970539025
 20
-3.599434267374356
 30
0.0
  0
VERTEX
  5
B5
330
AE
100
AcDbEntity
  8
Printable Overlay
 62
     0
100
AcDbVertex
100
AcDb2dVertex
 10
3.721223626577312
 20
-3.607517174498551
 30
0.0
  0
VERTEX
  5
B6
330
AE
100
AcDbEntity
  8
Printable Overlay
 62
     0
100
AcDbVertex
100
AcDb2dVertex
 10
3.765816947196154
 20
-3.607517174498551
 30
0.0
  0
VERTEX
  5
B7
330
AE
100
AcDbEntity
  8
Printable Overlay
 62
     0
100
AcDbVertex
100
AcDb2dVertex
 10
3.809671603234441
 20
-3.599434267374357
 30
0.0
  0
VERTEX
  5
B8
330
AE
100
AcDbEntity
  8
Printable Overlay
 62
     0
100
AcDbVertex
100
AcDb2dVertex
 10
3.85133473670096
 20
-3.583536231219984
 30
0.0
  0
VERTEX
  5
B9
330
AE
100
AcDbEntity
  8
Printable Overlay
 62
     0
100
AcDbVertex
100
AcDb2dVertex
 10
3.889426092410427
 20
-3.560349751020745
 30
0.0
  0
VERTEX
  5
BA
330
AE
100
AcDbEntity
  8
Printable Overlay
 62
     0
100
AcDbVertex
100
AcDb2dVertex
 10
3.922683744365967
 20
-3.530642970141308
 30
0.0
  0
VERTEX
  5
BB
330
AE
100
AcDbEntity
  8
Printable Overlay
 62
     0
100
AcDbVertex
100
AcDb2dVertex
 10
3.950005902021776
 20
-3.495400042555111
 30
0.0
  0
VERTEX
  5
BC
330
AE
100
AcDbEntity
  8
Printable Overlay
 62
     0
100
AcDbVertex
100
AcDb2dVertex
 10
3.970487411429028
 20
-3.455788528872654
 30
0.0
  0
VERTEX
  5
BD
330
AE
100
AcDbEntity
  8
Printable Overlay
 62
     0
100
AcDbVertex
100
AcDb2dVertex
 10
4.088520286886736
 20
-3.756944444444446
 30
0.0
  0
VERTEX
  5
BE
330
AE
100
AcDbEntity
  8
Printable Overlay
 62
     0
100
AcDbVertex
100
AcDb2dVertex
 10
4.088520286886734
 20
-3.756944444444446
 30
0.0
  0
VERTEX
  5
BF
330
AE
100
AcDbEntity
  8
Printable Overlay
 62
     0
100
AcDbVertex
100
AcDb2dVertex
 10
4.015902219885877
 20
-3.72439805061249
 30
0.0
  0
VERTEX
  5
C0
330
AE
100
AcDbEntity
  8
Printable Overlay
 62
     0
100
AcDbVertex
100
AcDb2dVertex
 10
3.940264681273207
 20
-3.699667216436861
 30
0.0
  0
VERTEX
  5
C1
330
AE
100
AcDbEntity
  8
Printable Overlay
 62
     0
100
AcDbVertex
100
AcDb2dVertex
 10
3.862446145899511
 20
-3.683026093917685
 30
0.0
  0
VERTEX
  5
C2
330
AE
100
AcDbEntity
  8
Printable Overlay
 62
     0
100
AcDbVertex
100
AcDb2dVertex
 10
3.783309265908585
 20
-3.674659157100216
 30
0.0
  0
VERTEX
  5
C3
330
AE
100
AcDbEntity
  8
Printable Overlay
 62
     0
100
AcDbVertex
100
AcDb2dVertex
 10
3.70373130786488
 20
-3.674659157100216
 30
0.0
  0
VERTEX
  5
C4
330
AE
100
AcDbEntity
  8
Printable Overlay
 62
     0
100
AcDbVertex
100
AcDb2dVertex
 10
3.624594427873955
 20
-3.683026093917684
 30
0.0
  0
VERTEX
  5
C5
330
AE
100
AcDbEntity
  8
Printable Overlay
 62
     0
100
AcDbVertex
100
AcDb2dVertex
 10
3.546775892500257
 20
-3.699667216436861
 30
0.0
  0
VERTEX
  5
C6
330
AE
100
AcDbEntity
  8
Printable Overlay
 62
     0
100
AcDbVertex
100
AcDb2dVertex
 10
3.471138353887588
 20
-3.72439805061249
 30
0.0
  0
VERTEX
  5
C7
330
AE
100
AcDbEntity
  8
Printable Overlay
 62
     0
100
AcDbVertex
100
AcDb2dVertex
 10
3.398520286886731
 20
-3.756944444444446
 30
0.0
  0
VERTEX
  5
C8
330
AE
100
AcDbEntity
  8
Printable Overlay
 62
     0
100
AcDbVertex
100
AcDb2dVertex
 10
3.516553162344438
 20
-3.455788528872653
 30
0.0
  0
SEQEND
  5
C9
330
AE
100
AcDbEntity
  8
Printable Overlay
 62
     0
  0
ARC
  5
CA
330
AD
100
AcDbEntity
  8
Printable Overlay
 62
     0
100
AcDbCircle
 10
3.743520286886734
 20
-3.363533857570836
 30
0.0
 40
0.2450000000000077
100
AcDbArc
 50
202.1201248752018
 51
337.8798751247976
  0
ARC
  5
CB
330
AD
100
AcDbEntity
  8
Printable Overlay
 62
     0
100
AcDbCircle
 10
8.932138478497608
 20
-1.684863262918791
 30
0.0
 40
5.268221484423043
100
AcDbArc
 50
199.6426296880249
 51
203.1610522508579
  0
ARC
  5
CC
330
AD
100
AcDbEntity
  8
Printable Overlay
 62
     0
100
AcDbCircle
 10
3.743520286886732
 20
-4.429427777777778
 30
0.0
 40
0.7558166666666662
100
AcDbArc
 50
62.84109383662148
 51
117.1589061633782
  0
ARC
  5
CD
330
AD
100
AcDbEntity
  8
Printable Overlay
 62
     0
100
AcDbCircle
 10
-1.445097904724143
 20
-1.684863262918791
 30
0.0
 40
5.268221484423045
100
AcDbArc
 50
336.8389477491421
 51
340.3573703119751
  0
ENDBLK
  5
CF
330
AD
100
AcDbEntity
  8
0
100
AcDbBlockEnd
  0
BLOCK
  5
E2
330
D1
100
AcDbEntity
  8
0
100
AcDbBlockBegin
  2
PD_35446
 70
     0
 10
0.0
 20
0.0
 30
0.0
  3
PD_35446
  1

  0
POLYLINE
  5
D2
330
D1
100
AcDbEntity
  8
Printable Overlay
 62
     0
100
AcDb2dPolyline
 66
     1
 10
0.0
 20
0.0
 30
0.0
  0
VERTEX
  5
D3
330
D2
100
AcDbEntity
  8
Printable Overlay
 62
     0
100
AcDbVertex
100
AcDb2dVertex
 10
4.513602918471035
 20
-3.155816555970949
 30
0.0
  0
VERTEX
  5
D4
330
D2
100
AcDbEntity
  8
Printable Overlay
 62
     0
100
AcDbVertex
100
AcDb2dVertex
 10
4.554327131836294
 20
-3.13534625691702
 30
0.0
  0
VERTEX
  5
D5
330
D2
100
AcDbEntity
  8
Printable Overlay
 62
     0
100
AcDbVertex
100
AcDb2dVertex
 10
4.598138364054985
 20
-3.122773642667938
 30
0.0
  0
VERTEX
  5
D6
330
D2
100
AcDbEntity
  8
Printable Overlay
 62
     0
100
AcDbVertex
100
AcDb2dVertex
 10
4.643520286886734
 20
-3.118533857570844
 30
0.0
  0
VERTEX
  5
D7
330
D2
100
AcDbEntity
  8
Printable Overlay
 62
     0
100
AcDbVertex
100
AcDb2dVertex
 10
4.688902209718484
 20
-3.122773642667939
 30
0.0
  0
VERTEX
  5
D8
330
D2
100
AcDbEntity
  8
Printable Overlay
 62
     0
100
AcDbVertex
100
AcDb2dVertex
 10
4.732713441937175
 20
-3.135346256917021
 30
0.0
  0
VERTEX
  5
D9
330
D2
100
AcDbEntity
  8
Printable Overlay
 62
     0
100
AcDbVertex
100
AcDb2dVertex
 10
4.773437655302433
 20
-3.155816555970951
 30
0.0
  0
VERTEX
  5
DA
330
D2
100
AcDbEntity
  8
Printable Overlay
 62
     0
100
AcDbVertex
100
AcDb2dVertex
 10
4.70087219665007
 20
-2.878288565864513
 30
0.0
  0
VERTEX
  5
DB
330
D2
100
AcDbEntity
  8
Printable Overlay
 62
     0
100
AcDbVertex
100
AcDb2dVertex
 10
4.643520286886734
 20
-2.597222222222224
 30
0.0
  0
VERTEX
  5
DC
330
D2
100
AcDbEntity
  8
Printable Overlay
 62
     0
100
AcDbVertex
100
AcDb2dVertex
 10
4.586168377123395
 20
-2.878288565864511
 30
0.0
  0
VERTEX
  5
DD
330
D2
100
AcDbEntity
  8
Printable Overlay
 62
     0
100
AcDbVertex
100
AcDb2dVertex
 10
4.513602918471034
 20
-3.155816555970949
 30
0.0
  0
SEQEND
  5
DE
330
D2
100
AcDbEntity
  8
Printable Overlay
 62
     0
  0
ARC
  5
DF
330
D1
100
AcDbEntity
  8
Printable Overlay
 62
     0
100
AcDbCircle
 10
4.643520286886733
 20
-3.363533857570873
 30
0.0
 40
0.2450000000000282
100
AcDbArc
 50
57.97596446416417
 51
122.024035535835
  0
ARC
  5
E0
330
D1
100
AcDbEntity
  8
Printable Overlay
 62
     0
100
AcDbCircle
 10
9.832138478497606
 20
-1.684863262918791
 30
0.0
 40
5.268221484423043
100
AcDbArc
 50
189.972855068469
 51
196.213209900936
  0
ARC
  5
E1
330
D1
100
AcDbEntity
  8
Printable Overlay
 62
     0
100
AcDbCircle
 10
-0.5450979047241422
 20
-1.684863262918791
 30
0.0
 40
5.268221484423044
100
AcDbArc
 50
343.786790099064
 51
350.027144931531
  0
ENDBLK
  5
E3
330
D1
100
AcDbEntity
  8
0
100
AcDbBlockEnd
  0
BLOCK
  5
106
330
E5
100
AcDbEntity
  8
0
100
AcDbBlockBegin
  2
PD_35447
 70
     0
 10
0.0
 20
0.0
 30
0.0
  3
PD_35447
  1

  0
POLYLINE
  5
E6
330
E5
100
AcDbEntity
  8
Printable Overlay
 62
     0
100
AcDb2dPolyline
 66
     1
 10
0.0
 20
0.0
 30
0.0
  0
VERTEX
  5
E7
330
E6
100
AcDbEntity
  8
Printable Overlay
 62
     0
100
AcDbVertex
100
AcDb2dVertex
 10
4.416553162344439
 20
-3.455788528872652
 30
0.0
  0
VERTEX
  5
E8
330
E6
100
AcDbEntity
  8
Printable Overlay
 62
     0
100
AcDbVertex
100
AcDb2dVertex
 10
4.437034671751691
 20
-3.495400042555108
 30
0.0
  0
VERTEX
  5
E9
330
E6
100
AcDbEntity
  8
Printable Overlay
 62
     0
100
AcDbVertex
100
AcDb2dVertex
 10
4.4643568294075
 20
-3.530642970141306
 30
0.0
  0
VERTEX
  5
EA
330
E6
100
AcDbEntity
  8
Printable Overlay
 62
     0
100
AcDbVertex
100
AcDb2dVertex
 10
4.497614481363039
 20
-3.560349751020744
 30
0.0
  0
VERTEX
  5
EB
330
E6
100
AcDbEntity
  8
Printable Overlay
 62
     0
100
AcDbVertex
100
AcDb2dVertex
 10
4.535705837072506
 20
-3.583536231219984
 30
0.0
  0
VERTEX
  5
EC
330
E6
100
AcDbEntity
  8
Printable Overlay
 62
     0
100
AcDbVertex
100
AcDb2dVertex
 10
4.577368970539025
 20
-3.599434267374356
 30
0.0
  0
VERTEX
  5
ED
330
E6
100
AcDbEntity
  8
Printable Overlay
 62
     0
100
AcDbVertex
100
AcDb2dVertex
 10
4.621223626577312
 20
-3.607517174498551
 30
0.0
  0
VERTEX
  5
EE
330
E6
100
AcDbEntity
  8
Printable Overlay
 62
     0
100
AcDbVertex
100
AcDb2dVertex
 10
4.665816947196153
 20
-3.607517174498551
 30
0.0
  0
VERTEX
  5
EF
330
E6
100
AcDbEntity
  8
Printable Overlay
 62
     0
100
AcDbVertex
100
AcDb2dVertex
 10
4.709671603234441
 20
-3.599434267374357
 30
0.0
  0
VERTEX
  5
F0
330
E6
100
AcDbEntity
  8
Printable Overlay
 62
     0
100
AcDbVertex
100
AcDb2dVertex
 10
4.751334736700961
 20
-3.583536231219984
 30
0.0
  0
VERTEX
  5
F1
330
E6
100
AcDbEntity
  8
Printable Overlay
 62
     0
100
AcDbVertex
100
AcDb2dVertex
 10
4.789426092410426
 20
-3.560349751020745
 30
0.0
  0
VERTEX
  5
F2
330
E6
100
AcDbEntity
  8
Printable Overlay
 62
     0
100
AcDbVertex
100
AcDb2dVertex
 10
4.822683744365968
 20
-3.530642970141308
 30
0.0
  0
VERTEX
  5
F3
330
E6
100
AcDbEntity
  8
Printable Overlay
 62
     0
100
AcDbVertex
100
AcDb2dVertex
 10
4.850005902021776
 20
-3.495400042555111
 30
0.0
  0
VERTEX
  5
F4
330
E6
100
AcDbEntity
  8
Printable Overlay
 62
     0
100
AcDbVertex
100
AcDb2dVertex
 10
4.870487411429028
 20
-3.455788528872654
 30
0.0
  0
VERTEX
  5
F5
330
E6
100
AcDbEntity
  8
Printable Overlay
 62
     0
100
AcDbVertex
100
AcDb2dVertex
 10
4.988520286886736
 20
-3.756944444444446
 30
0.0
  0
VERTEX
  5
F6
330
E6
100
AcDbEntity
  8
Printable Overlay
 62
     0
100
AcDbVertex
100
AcDb2dVertex
 10
4.988520286886733
 20
-3.756944444444446
 30
0.0
  0
VERTEX
  5
F7
330
E6
100
AcDbEntity
  8
Printable Overlay
 62
     0
100
AcDbVertex
100
AcDb2dVertex
 10
4.915902219885877
 20
-3.72439805061249
 30
0.0
  0
VERTEX
  5
F8
330
E6
100
AcDbEntity
  8
Printable Overlay
 62
     0
100
AcDbVertex
100
AcDb2dVertex
 10
4.840264681273206
 20
-3.699667216436861
 30
0.0
  0
VERTEX
  5
F9
330
E6
100
AcDbEntity
  8
Printable Overlay
 62
     0
100
AcDbVertex
100
AcDb2dVertex
 10
4.762446145899511
 20
-3.683026093917685
 30
0.0
  0
VERTEX
  5
FA
330
E6
100
AcDbEntity
  8
Printable Overlay
 62
     0
100
AcDbVertex
100
AcDb2dVertex
 10
4.683309265908585
 20
-3.674659157100216
 30
0.0
  0
VERTEX
  5
FB
330
E6
100
AcDbEntity
  8
Printable Overlay
 62
     0
100
AcDbVertex
100
AcDb2dVertex
 10
4.60373130786488
 20
-3.674659157100216
 30
0.0
  0
VERTEX
  5
FC
330
E6
100
AcDbEntity
  8
Printable Overlay
 62
     0
100
AcDbVertex
100
AcDb2dVertex
 10
4.524594427873955
 20
-3.683026093917684
 30
0.0
  0
VERTEX
  5
FD
330
E6
100
AcDbEntity
  8
Printable Overlay
 62
     0
100
AcDbVertex
100
AcDb2dVertex
 10
4.446775892500257
 20
-3.699667216436861
 30
0.0
  0
VERTEX
  5
FE
330
E6
100
AcDbEntity
  8
Printable Overlay
 62
     0
100
AcDbVertex
100
AcDb2dVertex
 10
4.371138353887588
 20
-3.72439805061249
 30
0.0
  0
VERTEX
  5
FF
330
E6
100
AcDbEntity
  8
Printable Overlay
 62
     0
100
AcDbVertex
100
AcDb2dVertex
 10
4.298520286886731
 20
-3.756944444444446
 30
0.0
  0
VERTEX
  5
100
330
E6
100
AcDbEntity
  8
Printable Overlay
 62
     0
100
AcDbVertex
100
AcDb2dVertex
 10
4.416553162344438
 20
-3.455788528872653
 30
0.0
  0
SEQEND
  5
101
330
E6
100
AcDbEntity
  8
Printable Overlay
 62
     0
  0
ARC
  5
102
330
E5
100
AcDbEntity
  8
Printable Overlay
 62
     0
100
AcDbCircle
 10
4.643520286886734
 20
-3.363533857570836
 30
0.0
 40
0.2450000000000077
100
AcDbArc
 50
202.1201248752018
 51
337.8798751247976
  0
ARC
  5
103
330
E5
100
AcDbEntity
  8
Printable Overlay
 62
     0
100
AcDbCircle
 10
9.832138478497606
 20
-1.684863262918791
 30
0.0
 40
5.268221484423043
100
AcDbArc
 50
199.6426296880249
 51
203.1610522508579
  0
ARC
  5
104
330
E5
100
AcDbEntity
  8
Printable Overlay
 62
     0
100
AcDbCircle
 10
4.643520286886733
 20
-4.429427777777778
 30
0.0
 40
0.7558166666666667
100
AcDbArc
 50
62.84109383662148
 51
117.1589061633782
  0
ARC
  5
105
330
E5
100
AcDbEntity
  8
Printable Overlay
 62
     0
100
AcDbCircle
 10
-0.5450979047241422
 20
-1.684863262918791
 30
0.0
 40
5.268221484423044
100
AcDbArc
 50
336.8389477491421
 51
340.3573703119751
  0
ENDBLK
  5
107
330
E5
100
AcDbEntity
  8
0
100
AcDbBlockEnd
  0
BLOCK
  5
117
330
109
100
AcDbEntity
  8
0
100
AcDbBlockBegin
  2
PD_35448
 70
     0
 10
0.0
 20
0.0
 30
0.0
  3
PD_35448
  1

  0
MTEXT
  5
10A
330
109
100
AcDbEntity
  8
Printable Overlay
 62
     0
100
AcDbMText
 10
1.447149411783432
 20
-2.170535692850251
 30
0.0
 40
0.1258680555555556
 41
0.0555555555555556
 71
     1
 72
     1
  1
\pxsm1.00;\fFutura Condensed|b0|i0|c0|p0.1259;\W0.90;S
 11
0.8557812723014464
 21
0.5173378141776587
 31
0.0
 73
     1
 44
1.0
  0
MTEXT
  5
10B
330
109
100
AcDbEntity
  8
Printable Overlay
 62
     0
100
AcDbMText
 10
1.488749890298086
 20
-2.145387326883281
 30
0.0
 40
0.1258680555555556
 41
0.0694444444444444
 71
     1
 72
     1
  1
\pxsm1.00;\fFutura Condensed|b0|i0|c0|p0.1259;\W0.90;P
 11
0.8557812723014464
 21
0.5173378141776587
 31
0.0
 73
     1
 44
1.0
  0
MTEXT
  5
10C
330
109
100
AcDbEntity
  8
Printable Overlay
 62
     0
100
AcDbMText
 10
1.553372644598216
 20
-2.109489449190626
 30
0.0
 40
0.1258680555555556
 41
0.0416666666666667
 71
     1
 72
     1
  1
\pxsm1.00;\fFutura Condensed|b0|i0|c0|p0.1259;\W0.90;I
 11
0.9118998459920897
 21
0.4104128054527577
 31
0.0
 73
     1
 44
1.0
  0
MTEXT
  5
10D
330
109
100
AcDbEntity
  8
Printable Overlay
 62
     0
100
AcDbMText
 10
1.59489199770467
 20
-2.08874857736307
 30
0.0
 40
0.1258680555555556
 41
0.0833333333333333
 71
     1
 72
     1
  1
\pxsm1.00;\fFutura Condensed|b0|i0|c0|p0.1259;\W0.90;N
 11
0.9547208665085425
 21
0.2975030538552129
 31
0.0
 73
     1
 44
1.0
  0
MTEXT
  5
10E
330
109
100
AcDbEntity
  8
Printable Overlay
 62
     0
100
AcDbMText
 10
1.678493657832609
 20
-2.061193405244618
 30
0.0
 40
0.1258680555555556
 41
0.0833333333333333
 71
     1
 72
     1
  1
\pxsm1.00;\fFutura Condensed|b0|i0|c0|p0.1259;\W0.90;D
 11
0.9836199069471439
 21
0.1802550378139043
 31
0.0
 73
     1
 44
1.0
  0
MTEXT
  5
10F
330
109
100
AcDbEntity
  8
Printable Overlay
 62
     0
100
AcDbMText
 10
1.764860041099005
 20
-2.044351585410725
 30
0.0
 40
0.1258680555555556
 41
0.0555555555555556
 71
     1
 72
     1
  1
\pxsm1.00;\fFutura Condensed|b0|i0|c0|p0.1259;\W0.90;L
 11
0.9981755542233175
 21
0.06037849742228513
 31
0.0
 73
     1
 44
1.0
  0
MTEXT
  5
110
330
109
100
AcDbEntity
  8
Printable Overlay
 62
     0
100
AcDbMText
 10
1.813382463873747
 20
-2.041416519563812
 30
0.0
 40
0.1258680555555556
 41
0.0555555555555556
 71
     1
 72
     1
  1
\pxsm1.00;\fFutura Condensed|b0|i0|c0|p0.1259;\W0.90;E
 11
0.9981755542233175
 21
0.06037849742228513
 31
0.0
 73
     1
 44
1.0
  0
MTEXT
  5
111
330
109
100
AcDbEntity
  8
Printable Overlay
 62
     0
100
AcDbMText
 10
1.926746901287527
 20
-2.041165067709739
 30
0.0
 40
0.1258680555555556
 41
0.0555555555555556
 71
     1
 72
     1
  1
\pxsm1.00;\fFutura Condensed|b0|i0|c0|p0.1259;\W0.90;(
 11
0.9836199069471442
 21
-0.1802550378139023
 31
0.0
 73
     1
 44
1.0
  0
MTEXT
  5
112
330
109
100
AcDbEntity
  8
Printable Overlay
 62
     0
100
AcDbMText
 10
1.967731064076988
 20
-2.04867569428532
 30
0.0
 40
0.1258680555555556
 41
0.0555555555555556
 71
     1
 72
     1
  1
\pxsm1.00;\fFutura Condensed|b0|i0|c0|p0.1259;\W0.90;J
 11
0.9836199069471442
 21
-0.1802550378139023
 31
0.0
 73
     1
 44
1.0
  0
MTEXT
  5
113
330
109
100
AcDbEntity
  8
Printable Overlay
 62
     0
100
AcDbMText
 10
2.026819577943482
 20
-2.059824669349367
 30
0.0
 40
0.1258680555555556
 41
0.0833333333333333
 71
     1
 72
     1
  1
\pxsm1.00;\fFutura Condensed|b0|i0|c0|p0.1259;\W0.90;O
 11
0.9547208665085458
 21
-0.2975030538552025
 31
0.0
 73
     1
 44
1.0
  0
MTEXT
  5
114
330
109
100
AcDbEntity
  8
Printable Overlay
 62
     0
100
AcDbMText
 10
2.116830550558099
 20
-2.089538826703337
 30
0.0
 40
0.1258680555555556
 41
0.0555555555555556
 71
     1
 72
     1
  1
\pxsm1.00;\fFutura Condensed|b0|i0|c0|p0.1259;\W0.90;F
 11
0.9118998459920862
 21
-0.4104128054527656
 31
0.0
 73
     1
 44
1.0
  0
MTEXT
  5
115
330
109
100
AcDbEntity
  8
Printable Overlay
 62
     0
100
AcDbMText
 10
2.184181291079299
 20
-2.120238960916311
 30
0.0
 40
0.1258680555555556
 41
0.0555555555555556
 71
     1
 72
     1
  1
\pxsm1.00;\fFutura Condensed|b0|i0|c0|p0.1259;\W0.90;F
 11
0.8557812723014465
 21
-0.5173378141776585
 31
0.0
 73
     1
 44
1.0
  0
MTEXT
  5
116
330
109
100
AcDbEntity
  8
Printable Overlay
 62
     0
100
AcDbMText
 10
2.242577532666193
 20
-2.153531369135988
 30
0.0
 40
0.1258680555555556
 41
0.0555555555555556
 71
     1
 72
     1
  1
\pxsm1.00;\fFutura Condensed|b0|i0|c0|p0.1259;\W0.90;)
 11
0.7871834806090515
 21
-0.6167188726285414
 31
0.0
 73
     1
 44
1.0
  0
ENDBLK
  5
118
330
109
100
AcDbEntity
  8
0
100
AcDbBlockEnd
  0
BLOCK
  5
125
330
11A
100
AcDbEntity
  8
0
100
AcDbBlockBegin
  2
PD_35449
 70
     0
 10
0.0
 20
0.0
 30
0.0
  3
PD_35449
  1

  0
MTEXT
  5
11B
330
11A
100
AcDbEntity
  8
Printable Overlay
 62
     0
100
AcDbMText
 10
1.480872915693833
 20
-2.358624825131293
 30
0.0
 40
0.1258680555555556
 41
0.0694444444444444
 71
     1
 72
     1
  1
\pxsm1.00;\fFutura Condensed|b0|i0|c0|p0.1259;\W0.90;R
 11
0.784799385278659
 21
0.6197498889602474
 31
0.0
 73
     1
 44
1.0
  0
MTEXT
  5
11C
330
11A
100
AcDbEntity
  8
Printable Overlay
 62
     0
100
AcDbMText
 10
1.596671005836793
 20
-2.284100436874605
 30
0.0
 40
0.1258680555555556
 41
0.0555555555555556
 71
     1
 72
     1
  1
\pxsm1.00;\fFutura Condensed|b0|i0|c0|p0.1259;\W0.90;F
 11
0.920649886676431
 21
0.3903892751634894
 31
0.0
 73
     1
 44
1.0
  0
MTEXT
  5
11D
330
11A
100
AcDbEntity
  8
Printable Overlay
 62
     0
100
AcDbMText
 10
1.660217667824393
 20
-2.257026728148099
 30
0.0
 40
0.1258680555555556
 41
0.0833333333333333
 71
     1
 72
     1
  1
\pxsm1.00;\fFutura Condensed|b0|i0|c0|p0.1259;\W0.90;U
 11
0.9644691750543746
 21
0.2641954018712932
 31
0.0
 73
     1
 44
1.0
  0
MTEXT
  5
11E
330
11A
100
AcDbEntity
  8
Printable Overlay
 62
     0
100
AcDbMText
 10
1.747165070521788
 20
-2.234469408746942
 30
0.0
 40
0.1258680555555556
 41
0.0833333333333333
 71
     1
 72
     1
  1
\pxsm1.00;\fFutura Condensed|b0|i0|c0|p0.1259;\W0.90;N
 11
0.9910774881547807
 21
0.1332869553737747
 31
0.0
 73
     1
 44
1.0
  0
MTEXT
  5
11F
330
11A
100
AcDbEntity
  8
Printable Overlay
 62
     0
100
AcDbMText
 10
1.836432496612687
 20
-2.225035048200133
 30
0.0
 40
0.1258680555555556
 41
0.0694444444444444
 71
     1
 72
     1
  1
\pxsm1.00;\fFutura Condensed|b0|i0|c0|p0.1259;\W0.90;C
 73
     1
 44
1.0
  0
MTEXT
  5
120
330
11A
100
AcDbEntity
  8
Printable Overlay
 62
     0
100
AcDbMText
 10
1.912306728917207
 20
-2.227064577892842
 30
0.0
 40
0.1258680555555556
 41
0.0555555555555556
 71
     1
 72
     1
  1
\pxsm1.00;\fFutura Condensed|b0|i0|c0|p0.1259;\W0.90;T
 11
0.9910774881547809
 21
-0.1332869553737727
 31
0.0
 73
     1
 44
1.0
  0
MTEXT
  5
121
330
11A
100
AcDbEntity
  8
Printable Overlay
 62
     0
100
AcDbMText
 10
1.973941560813115
 20
-2.235010444658823
 30
0.0
 40
0.1258680555555556
 41
0.0416666666666667
 71
     1
 72
     1
  1
\pxsm1.00;\fFutura Condensed|b0|i0|c0|p0.1259;\W0.90;I
 11
0.9644691750543742
 21
-0.2641954018712947
 31
0.0
 73
     1
 44
1.0
  0
MTEXT
  5
122
330
11A
100
AcDbEntity
  8
Printable Overlay
 62
     0
100
AcDbMText
 10
2.000732371231292
 20
-2.242349205821917
 30
0.0
 40
0.1258680555555556
 41
0.0833333333333333
 71
     1
 72
     1
  1
\pxsm1.00;\fFutura Condensed|b0|i0|c0|p0.1259;\W0.90;O
 11
0.9644691750543742
 21
-0.2641954018712947
 31
0.0
 73
     1
 44
1.0
  0
MTEXT
  5
123
330
11A
100
AcDbEntity
  8
Printable Overlay
 62
     0
100
AcDbMText
 10
2.106184366607236
 20
-2.275642718673337
 30
0.0
 40
0.1258680555555556
 41
0.0833333333333333
 71
     1
 72
     1
  1
\pxsm1.00;\fFutura Condensed|b0|i0|c0|p0.1259;\W0.90;N
 11
0.8604015792601347
 21
-0.5096166425919253
 31
0.0
 73
     1
 44
1.0
  0
MTEXT
  5
124
330
11A
100
AcDbEntity
  8
Printable Overlay
 62
     0
100
AcDbMText
 10
2.190058778349391
 20
-2.324194275744612
 30
0.0
 40
0.1258680555555556
 41
0.0555555555555556
 71
     1
 72
     1
  1
\pxsm1.00;\fFutura Condensed|b0|i0|c0|p0.1259;\W0.90;S
 11
0.7847993852786592
 21
-0.6197498889602472
 31
0.0
 73
     1
 44
1.0
  0
ENDBLK
  5
126
330
11A
100
AcDbEntity
  8
0
100
AcDbBlockEnd
  0
BLOCK
  5
133
330
12A
100
AcDbEntity
  8
0
100
AcDbBlockBegin
  2
PD_35450
 70
     0
 10
0.0
 20
0.0
 30
0.0
  3
PD_35450
  1

  0
MTEXT
  5
12B
330
12A
100
AcDbEntity
  8
Printable Overlay
 62
     0
100
AcDbMText
 10
5.37594650080954
 20
-2.176674575533011
 30
0.0
 40
0.1258680555555556
 41
0.0555555555555556
 71
     1
 72
     1
  1
\pxsm1.00;\fFutura Condensed|b0|i0|c0|p0.1259;\W0.90;F
 11
0.9041544212229476
 21
0.4272057848192092
 31
0.0
 73
     1
 44
1.0
  0
MTEXT
  5
12C
330
12A
100
AcDbEntity
  8
Printable Overlay
 62
     0
100
AcDbMText
 10
5.444764911885454
 20
-2.147864934498975
 30
0.0
 40
0.1258680555555556
 41
0.0555555555555556
 71
     1
 72
     1
  1
\pxsm1.00;\fFutura Condensed|b0|i0|c0|p0.1259;\W0.90;E
 11
0.9504890929113456
 21
0.3107579190568878
 31
0.0
 73
     1
 44
1.0
  0
MTEXT
  5
12D
330
12A
100
AcDbEntity
  8
Printable Overlay
 62
     0
100
AcDbMText
 10
5.516393648018246
 20
-2.126912966135466
 30
0.0
 40
0.1258680555555556
 41
0.0555555555555556
 71
     1
 72
     1
  1
\pxsm1.00;\fFutura Condensed|b0|i0|c0|p0.1259;\W0.90;E
 11
0.981894425534827
 21
0.1894289764097145
 31
0.0
 73
     1
 44
1.0
  0
MTEXT
  5
12E
330
12A
100
AcDbEntity
  8
Printable Overlay
 62
     0
100
AcDbMText
 10
5.583022212501069
 20
-2.114536787620245
 30
0.0
 40
0.1258680555555556
 41
0.0833333333333333
 71
     1
 72
     1
  1
\pxsm1.00;\fFutura Condensed|b0|i0|c0|p0.1259;\W0.90;D
 11
0.9978771353064633
 21
0.06512467145841357
 31
0.0
 73
     1
 44
1.0
  0
MTEXT
  5
12F
330
12A
100
AcDbEntity
  8
Printable Overlay
 62
     0
100
AcDbMText
 10
5.678398298228688
 20
-2.110385098816064
 30
0.0
 40
0.1258680555555556
 41
0.0694444444444444
 71
     1
 72
     1
  1
\pxsm1.00;\fFutura Condensed|b0|i0|c0|p0.1259;\W0.90;R
 11
0.9981861816881423
 21
-0.06020254717905985
 31
0.0
 73
     1
 44
1.0
  0
MTEXT
  5
130
330
12A
100
AcDbEntity
  8
Printable Overlay
 62
     0
100
AcDbMText
 10
5.759697913314251
 20
-2.117222345838464
 30
0.0
 40
0.1258680555555556
 41
0.0694444444444444
 71
     1
 72
     1
  1
\pxsm1.00;\fFutura Condensed|b0|i0|c0|p0.1259;\W0.90;A
 11
0.9828167104861069
 21
-0.1845841639720698
 31
0.0
 73
     1
 44
1.0
  0
MTEXT
  5
131
330
12A
100
AcDbEntity
  8
Printable Overlay
 62
     0
100
AcDbMText
 10
5.83292665139872
 20
-2.131915408554566
 30
0.0
 40
0.1258680555555556
 41
0.0555555555555556
 71
     1
 72
     1
  1
\pxsm1.00;\fFutura Condensed|b0|i0|c0|p0.1259;\W0.90;T
 11
0.9520101300958236
 21
-0.3060665159649664
 31
0.0
 73
     1
 44
1.0
  0
MTEXT
  5
132
330
12A
100
AcDbEntity
  8
Printable Overlay
 62
     0
100
AcDbMText
 10
5.897817339215638
 20
-2.151777896151932
 30
0.0
 40
0.1258680555555556
 41
0.0555555555555556
 71
     1
 72
     1
  1
\pxsm1.00;\fFutura Condensed|b0|i0|c0|p0.1259;\W0.90;E
 11
0.9062503196985467
 21
-0.4227414789753683
 31
0.0
 73
     1
 44
1.0
  0
ENDBLK
  5
134
330
12A
100
AcDbEntity
  8
0
100
AcDbBlockEnd
  0
BLOCK
  5
142
330
136
100
AcDbEntity
  8
0
100
AcDbBlockBegin
  2
PD_35451
 70
     0
 10
0.0
 20
0.0
 30
0.0
  3
PD_35451
  1

  0
MTEXT
  5
137
330
136
100
AcDbEntity
  8
Printable Overlay
 62
     0
100
AcDbMText
 10
2.622414545329273
 20
-5.040321180555555
 30
0.0
 40
0.1258680555555556
 41
0.1944444444444444
 71
     1
 72
     1
  1
\pxsm1.00;\fFutura Condensed|b0|i0|c0|p0.1259;\W0.90;OFF
 11
-1.836970198721030E-16
 21
1.0
 31
0.0
 73
     1
 44
1.0
  0
MTEXT
  5
138
330
136
100
AcDbEntity
  8
Printable Overlay
 62
     0
100
AcDbMText
 10
2.806437193418248
 20
-5.032536230535965
 30
0.0
 40
0.1258680555555556
 41
0.0694444444444444
 71
     1
 72
     1
  1
\pxsm1.00;\fFutura Condensed|b0|i0|c0|p0.1259;\W0.90;1
 11
0.5
 21
0.8660254037844386
 31
0.0
 73
     1
 44
1.0
  0
MTEXT
  5
139
330
136
100
AcDbEntity
  8
Printable Overlay
 62
     0
100
AcDbMText
 10
2.970566012100336
 20
-5.121045217533418
 30
0.0
 40
0.1258680555555556
 41
0.0694444444444444
 71
     1
 72
     1
  1
\pxsm1.00;\fFutura Condensed|b0|i0|c0|p0.1259;\W0.90;2
 11
0.8660254037844384
 21
0.5000000000000004
 31
0.0
 73
     1
 44
1.0
  0
MTEXT
  5
13A
330
136
100
AcDbEntity
  8
Printable Overlay
 62
     0
100
AcDbMText
 10
3.068451245073426
 20
-5.278024546966375
 30
0.0
 40
0.1258680555555556
 41
0.0694444444444444
 71
     1
 72
     1
  1
\pxsm1.00;\fFutura Condensed|b0|i0|c0|p0.1259;\W0.90;3
 73
     1
 44
1.0
  0
MTEXT
  5
13B
330
136
100
AcDbEntity
  8
Printable Overlay
 62
     0
100
AcDbMText
 10
3.074732678767001
 20
-5.462915250610906
 30
0.0
 40
0.1258680555555556
 41
0.0694444444444444
 71
     1
 72
     1
  1
\pxsm1.00;\fFutura Condensed|b0|i0|c0|p0.1259;\W0.90;4
 11
0.8660254037844389
 21
-0.4999999999999994
 31
0.0
 73
     1
 44
1.0
  0
MTEXT
  5
13C
330
136
100
AcDbEntity
  8
Printable Overlay
 62
     0
100
AcDbMText
 10
2.987727208095563
 20
-5.626176013737437
 30
0.0
 40
0.1258680555555556
 41
0.0694444444444444
 71
     1
 72
     1
  1
\pxsm1.00;\fFutura Condensed|b0|i0|c0|p0.1259;\W0.90;5
 11
0.5000000000000003
 21
-0.8660254037844385
 31
0.0
 73
     1
 44
1.0
  0
MTEXT
  5
13D
330
136
100
AcDbEntity
  8
Printable Overlay
 62
     0
100
AcDbMText
 10
2.691858989773718
 20
-5.674616802266084
 30
0.0
 40
0.1258680555555556
 41
0.0694444444444444
 71
     1
 72
     1
  1
\pxsm1.00;\fFutura Condensed|b0|i0|c0|p0.1259;\W0.90;6
 73
     1
 44
1.0
  0
MTEXT
  5
13E
330
136
100
AcDbEntity
  8
Printable Overlay
 62
     0
100
AcDbMText
 10
2.430712993674093
 20
-5.686316666778024
 30
0.0
 40
0.1258680555555556
 41
0.0694444444444444
 71
     1
 72
     1
  1
\pxsm1.00;\fFutura Condensed|b0|i0|c0|p0.1259;\W0.90;7
 11
0.4999999999999993
 21
0.866025403784439
 31
0.0
 73
     1
 44
1.0
  0
MTEXT
  5
13F
330
136
100
AcDbEntity
  8
Printable Overlay
 62
     0
100
AcDbMText
 10
2.257990392865592
 20
-5.53235969505535
 30
0.0
 40
0.1258680555555556
 41
0.1527777777777778
 71
     1
 72
     1
  1
\pxsm1.00;\fFutura Condensed|b0|i0|c0|p0.1259;\W0.90;U1
 11
0.8660254037844388
 21
0.4999999999999997
 31
0.0
 73
     1
 44
1.0
  0
MTEXT
  5
140
330
136
100
AcDbEntity
  8
Printable Overlay
 62
     0
100
AcDbMText
 10
2.235405623362898
 20
-5.278024546966375
 30
0.0
 40
0.1258680555555556
 41
0.1527777777777778
 71
     1
 72
     1
  1
\pxsm1.00;\fFutura Condensed|b0|i0|c0|p0.1259;\W0.90;U2
 73
     1
 44
1.0
  0
MTEXT
  5
141
330
136
100
AcDbEntity
  8
Printable Overlay
 62
     0
100
AcDbMText
 10
2.357231419646698
 20
-5.044656328644533
 30
0.0
 40
0.1258680555555556
 41
0.1527777777777778
 71
     1
 72
     1
  1
\pxsm1.00;\fFutura Condensed|b0|i0|c0|p0.1259;\W0.90;U3
 11
0.8660254037844389
 21
-0.4999999999999994
 31
0.0
 73
     1
 44
1.0
  0
ENDBLK
  5
143
330
136
100
AcDbEntity
  8
0
100
AcDbBlockEnd
  0
BLOCK
  5
151
330
145
100
AcDbEntity
  8
0
100
AcDbBlockBegin
  2
PD_35452
 70
     0
 10
0.0
 20
0.0
 30
0.0
  3
PD_35452
  1

  0
MTEXT
  5
146
330
145
100
AcDbEntity
  8
Printable Overlay
 62
     0
100
AcDbMText
 10
4.638039545329272
 20
-5.038585069444443
 30
0.0
 40
0.1258680555555556
 41
0.25
 71
     1
 72
     1
  1
\pxsm1.00;\fFutura Condensed|b0|i0|c0|p0.1259;\W0.90;JOFF
 11
-1.836970198721030E-16
 21
1.0
 31
0.0
 73
     1
 44
1.0
  0
MTEXT
  5
147
330
145
100
AcDbEntity
  8
Printable Overlay
 62
     0
100
AcDbMText
 10
4.82553441564047
 20
-5.035543263187997
 30
0.0
 40
0.1258680555555556
 41
0.0694444444444444
 71
     1
 72
     1
  1
\pxsm1.00;\fFutura Condensed|b0|i0|c0|p0.1259;\W0.90;X
 11
0.5
 21
0.8660254037844386
 31
0.0
 73
     1
 44
1.0
  0
MTEXT
  5
148
330
145
100
AcDbEntity
  8
Printable Overlay
 62
     0
100
AcDbMText
 10
4.988159717996544
 20
-5.121913273088975
 30
0.0
 40
0.1258680555555556
 41
0.0694444444444444
 71
     1
 72
     1
  1
\pxsm1.00;\fFutura Condensed|b0|i0|c0|p0.1259;\W0.90;Y
 11
0.8660254037844384
 21
0.5000000000000004
 31
0.0
 73
     1
 44
1.0
  0
MTEXT
  5
149
330
145
100
AcDbEntity
  8
Printable Overlay
 62
     0
100
AcDbMText
 10
5.085812356184536
 20
-5.278024546966375
 30
0.0
 40
0.1258680555555556
 41
0.0694444444444444
 71
     1
 72
     1
  1
\pxsm1.00;\fFutura Condensed|b0|i0|c0|p0.1259;\W0.90;Z
 73
     1
 44
1.0
  0
MTEXT
  5
14A
330
145
100
AcDbEntity
  8
Printable Overlay
 62
     0
100
AcDbMText
 10
5.092093789878112
 20
-5.462915250610906
 30
0.0
 40
0.1258680555555556
 41
0.0694444444444444
 71
     1
 72
     1
  1
\pxsm1.00;\fFutura Condensed|b0|i0|c0|p0.1259;\W0.90;A
 11
0.8660254037844389
 21
-0.4999999999999994
 31
0.0
 73
     1
 44
1.0
  0
MTEXT
  5
14B
330
145
100
AcDbEntity
  8
Printable Overlay
 62
     0
100
AcDbMText
 10
5.005088319206675
 20
-5.626176013737437
 30
0.0
 40
0.1258680555555556
 41
0.0694444444444444
 71
     1
 72
     1
  1
\pxsm1.00;\fFutura Condensed|b0|i0|c0|p0.1259;\W0.90;B
 11
0.5000000000000003
 21
-0.8660254037844385
 31
0.0
 73
     1
 44
1.0
  0
MTEXT
  5
14C
330
145
100
AcDbEntity
  8
Printable Overlay
 62
     0
100
AcDbMText
 10
4.709220100884829
 20
-5.674616802266084
 30
0.0
 40
0.1258680555555556
 41
0.0694444444444444
 71
     1
 72
     1
  1
\pxsm1.00;\fFutura Condensed|b0|i0|c0|p0.1259;\W0.90;C
 73
     1
 44
1.0
  0
MTEXT
  5
14D
330
145
100
AcDbEntity
  8
Printable Overlay
 62
     0
100
AcDbMText
 10
4.434185215896315
 20
-5.719094444555803
 30
0.0
 40
0.1258680555555556
 41
0.1111111111111111
 71
     1
 72
     1
  1
\pxsm1.00;\fFutura Condensed|b0|i0|c0|p0.1259;\W0.90;TL
 11
0.4999999999999993
 21
0.866025403784439
 31
0.0
 73
     1
 44
1.0
  0
MTEXT
  5
14E
330
145
100
AcDbEntity
  8
Printable Overlay
 62
     0
100
AcDbMText
 10
4.210882798080496
 20
-5.57142219505535
 30
0.0
 40
0.1258680555555556
 41
0.2083333333333333
 71
     1
 72
     1
  1
\pxsm1.00;\fFutura Condensed|b0|i0|c0|p0.1259;\W0.90;JOG
 11
0.8660254037844388
 21
0.4999999999999997
 31
0.0
 73
     1
 44
1.0
  0
MTEXT
  5
14F
330
145
100
AcDbEntity
  8
Printable Overlay
 62
     0
100
AcDbMText
 10
4.252766734474009
 20
-5.278024546966375
 30
0.0
 40
0.1258680555555556
 41
0.1527777777777778
 71
     1
 72
     1
  1
\pxsm1.00;\fFutura Condensed|b0|i0|c0|p0.1259;\W0.90;U1
 73
     1
 44
1.0
  0
MTEXT
  5
150
330
145
100
AcDbEntity
  8
Printable Overlay
 62
     0
100
AcDbMText
 10
4.374127341187616
 20
-5.046392439755644
 30
0.0
 40
0.1258680555555556
 41
0.1527777777777778
 71
     1
 72
     1
  1
\pxsm1.00;\fFutura Condensed|b0|i0|c0|p0.1259;\W0.90;U2
 11
0.8660254037844389
 21
-0.4999999999999994
 31
0.0
 73
     1
 44
1.0
  0
ENDBLK
  5
152
330
145
100
AcDbEntity
  8
0
100
AcDbBlockEnd
  0
BLOCK
  5
161
330
156
100
AcDbEntity
  8
0
100
AcDbBlockBegin
  2
PD_35453
 70
     0
 10
0.0
 20
0.0
 30
0.0
  3
PD_35453
  1

  0
MTEXT
  5
157
330
156
100
AcDbEntity
  8
Printable Overlay
 62
     0
100
AcDbMText
 10
2.430628902749704
 20
-8.53561033844608
 30
0.0
 40
0.1258680555555556
 41
0.0694444444444444
 71
     1
 72
     1
  1
\pxsm1.00;\fFutura Condensed|b0|i0|c0|p0.1259;\W0.90;C
 11
0.7171278610378695
 21
0.6969416266253941
 31
0.0
 73
     1
 44
1.0
  0
MTEXT
  5
158
330
156
100
AcDbEntity
  8
Printable Overlay
 62
     0
100
AcDbMText
 10
2.487829546308874
 20
-8.481262010724135
 30
0.0
 40
0.1258680555555556
 41
0.0694444444444444
 71
     1
 72
     1
  1
\pxsm1.00;\fFutura Condensed|b0|i0|c0|p0.1259;\W0.90;Y
 11
0.8149285736754009
 21
0.5795614029655327
 31
0.0
 73
     1
 44
1.0
  0
MTEXT
  5
159
330
156
100
AcDbEntity
  8
Printable Overlay
 62
     0
100
AcDbMText
 10
2.552866001961559
 20
-8.43663426912318
 30
0.0
 40
0.1258680555555556
 41
0.0694444444444444
 71
     1
 72
     1
  1
\pxsm1.00;\fFutura Condensed|b0|i0|c0|p0.1259;\W0.90;C
 11
0.8937063301409427
 21
0.4486524216651554
 31
0.0
 73
     1
 44
1.0
  0
MTEXT
  5
15A
330
156
100
AcDbEntity
  8
Printable Overlay
 62
     0
100
AcDbMText
 10
2.624106648666755
 20
-8.402837146000051
 30
0.0
 40
0.1258680555555556
 41
0.0555555555555556
 71
     1
 72
     1
  1
\pxsm1.00;\fFutura Condensed|b0|i0|c0|p0.1259;\W0.90;L
 11
0.9516222136791099
 21
0.3072705036811545
 31
0.0
 73
     1
 44
1.0
  0
MTEXT
  5
15B
330
156
100
AcDbEntity
  8
Printable Overlay
 62
     0
100
AcDbMText
 10
2.692909543993304
 20
-8.381811964998752
 30
0.0
 40
0.1258680555555556
 41
0.0555555555555556
 71
     1
 72
     1
  1
\pxsm1.00;\fFutura Condensed|b0|i0|c0|p0.1259;\W0.90;E
 11
0.9873242882432536
 21
0.1587159407399038
 31
0.0
 73
     1
 44
1.0
  0
MTEXT
  5
15C
330
156
100
AcDbEntity
  8
Printable Overlay
 62
     0
100
AcDbMText
 10
2.822348527070074
 20
-8.36828113112878
 30
0.0
 40
0.1258680555555556
 41
0.0555555555555556
 71
     1
 72
     1
  1
\pxsm1.00;\fFutura Condensed|b0|i0|c0|p0.1259;\W0.90;S
 11
0.9892914157385989
 21
-0.1459537418017047
 31
0.0
 73
     1
 44
1.0
  0
MTEXT
  5
15D
330
156
100
AcDbEntity
  8
Printable Overlay
 62
     0
100
AcDbMText
 10
2.870439082001812
 20
-8.375376104688586
 30
0.0
 40
0.1258680555555556
 41
0.0555555555555556
 71
     1
 72
     1
  1
\pxsm1.00;\fFutura Condensed|b0|i0|c0|p0.1259;\W0.90;T
 11
0.9892914157385989
 21
-0.1459537418017047
 31
0.0
 73
     1
 44
1.0
  0
MTEXT
  5
15E
330
156
100
AcDbEntity
  8
Printable Overlay
 62
     0
100
AcDbMText
 10
2.934045188587115
 20
-8.388289071799425
 30
0.0
 40
0.1258680555555556
 41
0.0694444444444444
 71
     1
 72
     1
  1
\pxsm1.00;\fFutura Condensed|b0|i0|c0|p0.1259;\W0.90;A
 11
0.9555105498232536
 21
-0.2949569276631144
 31
0.0
 73
     1
 44
1.0
  0
MTEXT
  5
15F
330
156
100
AcDbEntity
  8
Printable Overlay
 62
     0
100
AcDbMText
 10
3.036897125083438
 20
-8.425870401462493
 30
0.0
 40
0.1258680555555556
 41
0.0694444444444444
 71
     1
 72
     1
  1
\pxsm1.00;\fFutura Condensed|b0|i0|c0|p0.1259;\W0.90;R
 11
0.8223443014983872
 21
-0.568990201842817
 31
0.0
 73
     1
 44
1.0
  0
MTEXT
  5
160
330
156
100
AcDbEntity
  8
Printable Overlay
 62
     0
100
AcDbMText
 10
3.108528577113061
 20
-8.473540798802876
 30
0.0
 40
0.1258680555555556
 41
0.0555555555555556
 71
     1
 72
     1
  1
\pxsm1.00;\fFutura Condensed|b0|i0|c0|p0.1259;\W0.90;T
 11
0.7260674316472679
 21
-0.6876235050528304
 31
0.0
 73
     1
 44
1.0
  0
ENDBLK
  5
162
330
156
100
AcDbEntity
  8
0
100
AcDbBlockEnd
  0
BLOCK
  5
16B
330
164
100
AcDbEntity
  8
0
100
AcDbBlockBegin
  2
PD_35454
 70
     0
 10
0.0
 20
0.0
 30
0.0
  3
PD_35454
  1

  0
MTEXT
  5
165
330
164
100
AcDbEntity
  8
Printable Overlay
 62
     0
100
AcDbMText
 10
4.247332151436817
 20
-8.40080465699211
 30
0.0
 40
0.2097800925925926
 41
0.125
 71
     1
 72
     1
  1
\pxsm1.00;\fFutura Condensed|b1|i0|c0|p0.2098;\W0.90;E
 11
0.854289670485708
 21
0.5197972286396113
 31
0.0
 73
     1
 44
1.0
  0
MTEXT
  5
166
330
164
100
AcDbEntity
  8
Printable Overlay
 62
     0
100
AcDbMText
 10
4.365208729869027
 20
-8.332209504795795
 30
0.0
 40
0.2097800925925926
 41
0.0694444444444444
 71
     1
 72
     1
  1
\pxsm1.00;\fFutura Condensed|b1|i0|c0|p0.2098;\W0.90;-
 11
0.9106603031938629
 21
0.4131559175261341
 31
0.0
 73
     1
 44
1.0
  0
MTEXT
  5
167
330
164
100
AcDbEntity
  8
Printable Overlay
 62
     0
100
AcDbMText
 10
4.455995561322349
 20
-8.289870842412737
 30
0.0
 40
0.2097800925925926
 41
0.125
 71
     1
 72
     1
  1
\pxsm1.00;\fFutura Condensed|b1|i0|c0|p0.2098;\W0.90;S
 11
0.9830237944888913
 21
0.1834781171384259
 31
0.0
 73
     1
 44
1.0
  0
MTEXT
  5
168
330
164
100
AcDbEntity
  8
Printable Overlay
 62
     0
100
AcDbMText
 10
4.590278320158379
 20
-8.265484307810489
 30
0.0
 40
0.2097800925925926
 41
0.125
 71
     1
 72
     1
  1
\pxsm1.00;\fFutura Condensed|b1|i0|c0|p0.2098;\W0.90;T
 11
0.9979637630133945
 21
0.0637834438717868
 31
0.0
 73
     1
 44
1.0
  0
MTEXT
  5
169
330
164
100
AcDbEntity
  8
Printable Overlay
 62
     0
100
AcDbMText
 10
4.758713548955317
 20
-8.256445284002647
 30
0.0
 40
0.2097800925925926
 41
0.1805555555555556
 71
     1
 72
     1
  1
\pxsm1.00;\fFutura Condensed|b1|i0|c0|p0.2098;\W0.90;O
 11
0.955848268749832
 21
-0.2938606593743862
 31
0.0
 73
     1
 44
1.0
  0
MTEXT
  5
16A
330
164
100
AcDbEntity
  8
Printable Overlay
 62
     0
100
AcDbMText
 10
4.960155490391259
 20
-8.31936567475842
 30
0.0
 40
0.2097800925925926
 41
0.1527777777777778
 71
     1
 72
     1
  1
\pxsm1.00;\fFutura Condensed|b1|i0|c0|p0.2098;\W0.90;P
 11
0.8578851160720071
 21
-0.5138415394089105
 31
0.0
 73
     1
 44
1.0
  0
ENDBLK
  5
16C
330
164
100
AcDbEntity
  8
0
100
AcDbBlockEnd
  0
BLOCK
  5
1A0
330
197
100
AcDbEntity
  8
0
100
AcDbBlockBegin
  2
PD_35455
 70
     0
 10
0.0
 20
0.0
 30
0.0
  3
PD_35455
  1

  0
MTEXT
  5
198
330
197
100
AcDbEntity
  8
Printable Overlay
 62
     0
100
AcDbMText
 10
5.352859043197142
 20
-2.359613161539392
 30
0.0
 40
0.1258680555555556
 41
0.0833333333333333
 71
     1
 72
     1
  1
\pxsm1.00;\fFutura Condensed|b0|i0|c0|p0.1259;\W0.90;O
 11
0.847338681759309
 21
0.5310528772112966
 31
0.0
 73
     1
 44
1.0
  0
MTEXT
  5
199
330
197
100
AcDbEntity
  8
Printable Overlay
 62
     0
100
AcDbMText
 10
5.457232812233756
 20
-2.30239623983856
 30
0.0
 40
0.1258680555555556
 41
0.0555555555555556
 71
     1
 72
     1
  1
\pxsm1.00;\fFutura Condensed|b0|i0|c0|p0.1259;\W0.90;V
 11
0.9607358059823025
 21
0.2774647925476955
 31
0.0
 73
     1
 44
1.0
  0
MTEXT
  5
19A
330
197
100
AcDbEntity
  8
Printable Overlay
 62
     0
100
AcDbMText
 10
5.530644542362467
 20
-2.278976281977834
 30
0.0
 40
0.1258680555555556
 41
0.0555555555555556
 71
     1
 72
     1
  1
\pxsm1.00;\fFutura Condensed|b0|i0|c0|p0.1259;\W0.90;E
 11
0.9899617877065013
 21
0.1413352711850371
 31
0.0
 73
     1
 44
1.0
  0
MTEXT
  5
19B
330
197
100
AcDbEntity
  8
Printable Overlay
 62
     0
100
AcDbMText
 10
5.606585744461286
 20
-2.265815710139237
 30
0.0
 40
0.1258680555555556
 41
0.0694444444444444
 71
     1
 72
     1
  1
\pxsm1.00;\fFutura Condensed|b0|i0|c0|p0.1259;\W0.90;R
 11
0.9999969596432422
 21
0.002465908407031697
 31
0.0
 73
     1
 44
1.0
  0
MTEXT
  5
19C
330
197
100
AcDbEntity
  8
Printable Overlay
 62
     0
100
AcDbMText
 10
5.697388819669089
 20
-2.265061510714187
 30
0.0
 40
0.1258680555555556
 41
0.0694444444444444
 71
     1
 72
     1
  1
\pxsm1.00;\fFutura Condensed|b0|i0|c0|p0.1259;\W0.90;R
 11
0.990646785924359
 21
-0.1364512570031416
 31
0.0
 73
     1
 44
1.0
  0
MTEXT
  5
19D
330
197
100
AcDbEntity
  8
Printable Overlay
 62
     0
100
AcDbMText
 10
5.7803724665297
 20
-2.276764376257871
 30
0.0
 40
0.1258680555555556
 41
0.0416666666666667
 71
     1
 72
     1
  1
\pxsm1.00;\fFutura Condensed|b0|i0|c0|p0.1259;\W0.90;I
 11
0.962092523450419
 21
-0.2727232595889193
 31
0.0
 73
     1
 44
1.0
  0
MTEXT
  5
19E
330
197
100
AcDbEntity
  8
Printable Overlay
 62
     0
100
AcDbMText
 10
5.828887339663648
 20
-2.286616950885089
 30
0.0
 40
0.1258680555555556
 41
0.0833333333333333
 71
     1
 72
     1
  1
\pxsm1.00;\fFutura Condensed|b0|i0|c0|p0.1259;\W0.90;D
 11
0.914887708152368
 21
-0.4037084114453248
 31
0.0
 73
     1
 44
1.0
  0
MTEXT
  5
19F
330
197
100
AcDbEntity
  8
Printable Overlay
 62
     0
100
AcDbMText
 10
5.918761009756945
 20
-2.325157481674804
 30
0.0
 40
0.1258680555555556
 41
0.0555555555555556
 71
     1
 72
     1
  1
\pxsm1.00;\fFutura Condensed|b0|i0|c0|p0.1259;\W0.90;E
 11
0.8499474244735461
 21
-0.5268675124078022
 31
0.0
 73
     1
 44
1.0
  0
ENDBLK
  5
1A1
330
197
100
AcDbEntity
  8
0
100
AcDbBlockEnd
  0
ENDSEC
  0
SECTION
  2
ENTITIES
  0
MTEXT
  5
5E
330
1F
100
AcDbEntity
  8
Printable Overlay
 62
     0
100
AcDbMText
 10
2.597222222222222
 20
-0.8241102430555555
 30
0.0
 40
0.1048900462962963
 41
2.25
 71
     1
 72
     1
  1
\pxsm1.00;\fFutura Condensed|b0|i0|c0|p0.1049;\W0.90;1 - FHold, 0Axis, JMTog\P2 - HmAll, CPage, CJogT\P3 - SOVre, SSInc, SSDec\P4 - M4/M5, IncJS, DecJS\P\P
 73
     1
 44
1.0
  0
MTEXT
  5
5F
330
1F
100
AcDbEntity
  8
Printable Overlay
 62
     0
100
AcDbMText
 10
3.454861111111111
 20
-0.6227213541666666
 30
0.0
 40
0.1048900462962963
 41
0.75
 71
     1
 72
     1
  1
\pxsm1.00;\fFutura Condensed|b1|i0|c0|p0.1049;\W0.90;L FUNCTIONS
 73
     1
 44
1.0
  0
MTEXT
  5
60
330
1F
100
AcDbEntity
  8
Printable Overlay
 62
     0
100
AcDbMText
 10
3.871527777777778
 20
-0.8241102430555555
 30
0.0
 40
0.1048900462962963
 41
2.25
 71
     1
 72
     1
  1
\pxsm1.00;\fFutura Condensed|b0|i0|c0|p0.1049;\W0.90;5 - M8FLd, M7Mst, M9Off\P6 - G54wo, G55-9, G53mc\P7 - SInc1, SInc2, SInc3\PU1-U3 - User Assigned\P
 73
     1
 44
1.0
  0
INSERT
  5
74
330
1F
100
AcDbEntity
  8
Printable Overlay
100
AcDbBlockReference
  2
PD_35442
 10
0.0
 20
0.0
 30
0.0
  0
INSERT
  5
98
330
1F
100
AcDbEntity
  8
Printable Overlay
100
AcDbBlockReference
  2
PD_35443
 10
0.0
 20
0.0
 30
0.0
  0
INSERT
  5
AC
330
1F
100
AcDbEntity
  8
Printable Overlay
100
AcDbBlockReference
  2
PD_35444
 10
0.0
 20
0.0
 30
0.0
  0
INSERT
  5
D0
330
1F
100
AcDbEntity
  8
Printable Overlay
100
AcDbBlockReference
  2
PD_35445
 10
0.0
 20
0.0
 30
0.0
  0
INSERT
  5
E4
330
1F
100
AcDbEntity
  8
Printable Overlay
100
AcDbBlockReference
  2
PD_35446
 10
0.0
 20
0.0
 30
0.0
  0
INSERT
  5
108
330
1F
100
AcDbEntity
  8
Printable Overlay
100
AcDbBlockReference
  2
PD_35447
 10
0.0
 20
0.0
 30
0.0
  0
INSERT
  5
119
330
1F
100
AcDbEntity
  8
Printable Overlay
100
AcDbBlockReference
  2
PD_35448
 10
0.0
 20
0.0
 30
0.0
  0
INSERT
  5
127
330
1F
100
AcDbEntity
  8
Printable Overlay
100
AcDbBlockReference
  2
PD_35449
 10
0.0
 20
0.0
 30
0.0
  0
MTEXT
  5
128
330
1F
100
AcDbEntity
  8
Printable Overlay
 62
     0
100
AcDbMText
 10
5.349653286483232
 20
-3.160236447559298
 30
0.0
 40
0.1048900462962963
 41
0.1805555555555556
 71
     1
 72
     1
  1
\pxsm1.00;\fFutura Condensed|b0|i0|c0|p0.1049;\W0.90;MIN
 11
0.5
 21
0.8660254037844386
 31
0.0
 73
     1
 44
1.0
  0
MTEXT
  5
129
330
1F
100
AcDbEntity
  8
Printable Overlay
 62
     0
100
AcDbMText
 10
5.886068071087613
 20
-3.004605292228605
 30
0.0
 40
0.1048900462962963
 41
0.1944444444444444
 71
     1
 72
     1
  1
\pxsm1.00;\fFutura Condensed|b0|i0|c0|p0.1049;\W0.90;MAX
 11
0.4999999999999996
 21
-0.8660254037844389
 31
0.0
 73
     1
 44
1.0
  0
INSERT
  5
135
330
1F
100
AcDbEntity
  8
Printable Overlay
100
AcDbBlockReference
  2
PD_35450
 10
0.0
 20
0.0
 30
0.0
  0
INSERT
  5
144
330
1F
100
AcDbEntity
  8
Printable Overlay
100
AcDbBlockReference
  2
PD_35451
 10
0.0
 20
0.0
 30
0.0
  0
INSERT
  5
153
330
1F
100
AcDbEntity
  8
Printable Overlay
100
AcDbBlockReference
  2
PD_35452
 10
0.0
 20
0.0
 30
0.0
  0
MTEXT
  5
154
330
1F
100
AcDbEntity
  8
Printable Overlay
 62
     0
100
AcDbMText
 10
2.236111111111111
 20
-4.768815104166666
 30
0.0
 40
0.1888020833333333
 41
0.1111111111111111
 71
     1
 72
     1
  1
\pxsm1.00;\fFutura Condensed|b1|i0|c0|p0.1888;\W0.90;L
 73
     1
 44
1.0
  0
MTEXT
  5
155
330
1F
100
AcDbEntity
  8
Printable Overlay
 62
     0
100
AcDbMText
 10
5.114583333333333
 20
-4.768815104166666
 30
0.0
 40
0.1888020833333333
 41
0.1527777777777778
 71
     1
 72
     1
  1
\pxsm1.00;\fFutura Condensed|b1|i0|c0|p0.1888;\W0.90;R
 73
     1
 44
1.0
  0
INSERT
  5
163
330
1F
100
AcDbEntity
  8
Printable Overlay
100
AcDbBlockReference
  2
PD_35453
 10
0.0
 20
0.0
 30
0.0
  0
INSERT
  5
16D
330
1F
100
AcDbEntity
  8
Printable Overlay
100
AcDbBlockReference
  2
PD_35454
 10
0.0
 20
0.0
 30
0.0
  0
POLYLINE
  5
16F
330
1F
100
AcDbEntity
  8
Printable Overlay
  6
PC_DASH_1
 62
     0
100
AcDb2dPolyline
 66
     1
 10
0.0
 20
0.0
 30
0.0
  0
VERTEX
  5
170
330
16F
100
AcDbEntity
  8
Printable Overlay
  6
PC_DASH_1
 62
     0
100
AcDbVertex
100
AcDb2dVertex
 10
2.144391644286778
 20
-4.743015739461897
 30
0.0
  0
VERTEX
  5
171
330
16F
100
AcDbEntity
  8
Printable Overlay
  6
PC_DASH_1
 62
     0
100
AcDbVertex
100
AcDb2dVertex
 10
5.332391644286777
 20
-4.743015739461897
 30
0.0
  0
VERTEX
  5
172
330
16F
100
AcDbEntity
  8
Printable Overlay
  6
PC_DASH_1
 62
     0
100
AcDbVertex
100
AcDb2dVertex
 10
5.332391644286777
 20
-9.393015739461898
 30
0.0
  0
VERTEX
  5
173
330
16F
100
AcDbEntity
  8
Printable Overlay
  6
PC_DASH_1
 62
     0
100
AcDbVertex
100
AcDb2dVertex
 10
2.144391644286778
 20
-9.393015739461898
 30
0.0
  0
VERTEX
  5
174
330
16F
100
AcDbEntity
  8
Printable Overlay
  6
PC_DASH_1
 62
     0
100
AcDbVertex
100
AcDb2dVertex
 10
2.144391644286778
 20
-4.743015739461897
 30
0.0
  0
SEQEND
  5
175
330
16F
100
AcDbEntity
  8
Printable Overlay
  6
PC_DASH_1
 62
     0
  0
POLYLINE
  5
176
330
1F
100
AcDbEntity
  8
Printable Overlay
  6
PC_DASH_1
 62
     0
100
AcDb2dPolyline
 66
     1
 10
0.0
 20
0.0
 30
0.0
  0
VERTEX
  5
177
330
176
100
AcDbEntity
  8
Printable Overlay
  6
PC_DASH_1
 62
     0
100
AcDbVertex
100
AcDb2dVertex
 10
1.453479673300477
 20
-0.6076498026896644
 30
0.0
  0
VERTEX
  5
178
330
176
100
AcDbEntity
  8
Printable Overlay
  6
PC_DASH_1
 62
     0
100
AcDbVertex
100
AcDb2dVertex
 10
6.058479673300477
 20
-0.6076498026896644
 30
0.0
  0
VERTEX
  5
179
330
176
100
AcDbEntity
  8
Printable Overlay
  6
PC_DASH_1
 62
     0
100
AcDbVertex
100
AcDb2dVertex
 10
6.058479673300477
 20
-3.795649802689665
 30
0.0
  0
VERTEX
  5
17A
330
176
100
AcDbEntity
  8
Printable Overlay
  6
PC_DASH_1
 62
     0
100
AcDbVertex
100
AcDb2dVertex
 10
1.453479673300477
 20
-3.795649802689665
 30
0.0
  0
VERTEX
  5
17B
330
176
100
AcDbEntity
  8
Printable Overlay
  6
PC_DASH_1
 62
     0
100
AcDbVertex
100
AcDb2dVertex
 10
1.453479673300477
 20
-0.6076498026896644
 30
0.0
  0
SEQEND
  5
17C
330
176
100
AcDbEntity
  8
Printable Overlay
  6
PC_DASH_1
 62
     0
  0
POLYLINE
  5
17D
330
1F
100
AcDbEntity
  8
Printable Overlay
  6
PC_DASH_1
 62
     0
100
AcDb2dPolyline
 66
     1
 10
0.0
 20
0.0
 30
0.0
  0
VERTEX
  5
17E
330
17D
100
AcDbEntity
  8
Printable Overlay
  6
PC_DASH_1
 62
     0
100
AcDbVertex
100
AcDb2dVertex
 10
2.57228116297733
 20
-1.649719121766563
 30
0.0
  0
VERTEX
  5
17F
330
17D
100
AcDbEntity
  8
Printable Overlay
  6
PC_DASH_1
 62
     0
100
AcDbVertex
100
AcDb2dVertex
 10
4.94228116297733
 20
-1.649719121766563
 30
0.0
  0
VERTEX
  5
180
330
17D
100
AcDbEntity
  8
Printable Overlay
  6
PC_DASH_1
 62
     0
100
AcDbVertex
100
AcDb2dVertex
 10
4.94228116297733
 20
-2.515919121766566
 30
0.0
  0
VERTEX
  5
181
330
17D
100
AcDbEntity
  8
Printable Overlay
  6
PC_DASH_1
 62
     0
100
AcDbVertex
100
AcDb2dVertex
 10
2.57228116297733
 20
-2.515919121766566
 30
0.0
  0
VERTEX
  5
182
330
17D
100
AcDbEntity
  8
Printable Overlay
  6
PC_DASH_1
 62
     0
100
AcDbVertex
100
AcDb2dVertex
 10
2.57228116297733
 20
-1.649719121766563
 30
0.0
  0
SEQEND
  5
183
330
17D
100
AcDbEntity
  8
Printable Overlay
  6
PC_DASH_1
 62
     0
  0
CIRCLE
  5
185
330
1F
100
AcDbEntity
  8
Printable Overlay
  6
PC_DASH_2
 62
     0
100
AcDbCircle
 10
1.853520286886733
 20
-1.823533857570844
 30
0.0
 40
0.1949999999999995
  0
CIRCLE
  5
186
330
1F
100
AcDbEntity
  8
Printable Overlay
  6
PC_DASH_2
 62
     0
100
AcDbCircle
 10
2.38228116297733
 20
-1.298019121766563
 30
0.0
 40
0.1375000000000005
  0
CIRCLE
  5
187
330
1F
100
AcDbEntity
  8
Printable Overlay
  6
PC_DASH_2
 62
     0
100
AcDbCircle
 10
5.135981162977329
 20
-1.298019121766563
 30
0.0
 40
0.1374999999999997
  0
CIRCLE
  5
188
330
1F
100
AcDbEntity
  8
Printable Overlay
  6
PC_DASH_2
 62
     0
100
AcDbCircle
 10
5.663520286886733
 20
-1.823533857570844
 30
0.0
 40
0.1949999999999995
  0
CIRCLE
  5
189
330
1F
100
AcDbEntity
  8
Printable Overlay
  6
PC_DASH_2
 62
     0
100
AcDbCircle
 10
5.135981162977329
 20
-2.868019121766566
 30
0.0
 40
0.1374999999999997
  0
CIRCLE
  5
18A
330
1F
100
AcDbEntity
  8
Printable Overlay
  6
PC_DASH_2
 62
     0
100
AcDbCircle
 10
5.662544208969544
 20
-2.743533166183163
 30
0.0
 40
0.3074984508439371
  0
CIRCLE
  5
18B
330
1F
100
AcDbEntity
  8
Printable Overlay
  6
PC_DASH_2
 62
     0
100
AcDbCircle
 10
1.85726582994602
 20
-2.745386795298547
 30
0.0
 40
0.3449999999999996
  0
CIRCLE
  5
18C
330
1F
100
AcDbEntity
  8
Printable Overlay
  6
PC_DASH_2
 62
     0
100
AcDbCircle
 10
2.38008116297733
 20
-2.870219121766565
 30
0.0
 40
0.1375000000000005
  0
CIRCLE
  5
18D
330
1F
100
AcDbEntity
  8
Printable Overlay
  6
PC_DASH_2
 62
     0
100
AcDbCircle
 10
2.843520286886732
 20
-3.363533857570843
 30
0.0
 40
0.1949999999999995
  0
CIRCLE
  5
18E
330
1F
100
AcDbEntity
  8
Printable Overlay
  6
PC_DASH_2
 62
     0
100
AcDbCircle
 10
3.743520286886731
 20
-3.363533857570843
 30
0.0
 40
0.1949999999999995
  0
CIRCLE
  5
18F
330
1F
100
AcDbEntity
  8
Printable Overlay
  6
PC_DASH_2
 62
     0
100
AcDbCircle
 10
4.633520286886732
 20
-3.363533857570843
 30
0.0
 40
0.1949999999999995
  0
CIRCLE
  5
190
330
1F
100
AcDbEntity
  8
Printable Overlay
  6
PC_DASH_2
 62
     0
100
AcDbCircle
 10
2.726581211995939
 20
-5.355758921966375
 30
0.0
 40
0.3074999999999998
  0
CIRCLE
  5
191
330
1F
100
AcDbEntity
  8
Printable Overlay
  6
PC_DASH_2
 62
     0
100
AcDbCircle
 10
3.743520286886731
 20
-5.083533857570844
 30
0.0
 40
0.1949999999999995
  0
CIRCLE
  5
192
330
1F
100
AcDbEntity
  8
Printable Overlay
  6
PC_DASH_2
 62
     0
100
AcDbCircle
 10
4.742657205152669
 20
-5.341824090281879
 30
0.0
 40
0.3074999999999998
  0
CIRCLE
  5
193
330
1F
100
AcDbEntity
  8
Printable Overlay
  6
PC_DASH_2
 62
     0
100
AcDbCircle
 10
3.743520286886731
 20
-7.273533857570842
 30
0.0
 40
1.1875
  0
CIRCLE
  5
194
330
1F
100
AcDbEntity
  8
Printable Overlay
  6
PC_DASH_2
 62
     0
100
AcDbCircle
 10
4.671221787844325
 20
-8.9144644714704
 30
0.0
 40
0.3450000000000004
  0
CIRCLE
  5
195
330
1F
100
AcDbEntity
  8
Printable Overlay
  6
PC_DASH_2
 62
     0
100
AcDbCircle
 10
3.743520286886731
 20
-8.913533857570842
 30
0.0
 40
0.1950000000000003
  0
CIRCLE
  5
196
330
1F
100
AcDbEntity
  8
Printable Overlay
  6
PC_DASH_2
 62
     0
100
AcDbCircle
 10
2.801989328267142
 20
-8.910992089541317
 30
0.0
 40
0.3450000000000004
  0
INSERT
  5
1A2
330
1F
100
AcDbEntity
  8
Printable Overlay
100
AcDbBlockReference
  2
PD_35455
 10
0.0
 20
0.0
 30
0.0
  0
VIEWPORT
  5
1A7
330
1A3
100
AcDbEntity
 67
     1
  8
0
100
AcDbViewport
 10
5.25
 20
4.0
 30
0.0
 40
11.638
 41
8.993
 68
     1
 69
     1
 12
5.25
 22
4.0
 13
0.0
 23
0.0
 14
0.5
 24
0.5
 15
0.5
 25
0.5
 16
0.0
 26
0.0
 36
1.0
 17
0.0
 27
0.0
 37
0.0
 42
50.0
 43
0.0
 44
0.0
 45
8.993
 50
0.0
 51
0.0
 72
   100
 90
   557152
  1

281
     0
 71
     1
 74
     0
110
0.0
120
0.0
130
0.0
111
1.0
121
0.0
131
0.0
112
0.0
122
1.0
132
0.0
 79
     0
146
0.0
170
     0
  0
VIEWPORT
  5
1A8
330
1A3
100
AcDbEntity
 67
     1
  8
0
100
AcDbViewport
 10
3.4999999
 20
5.25
 30
0.0
 40
576.0
 41
734.0
 68
     2
 69
     2
 12
0.0
 22
0.0
 13
0.0
 23
0.0
 14
0.5
 24
0.5
 15
0.5
 25
0.5
 16
0.0
 26
0.0
 36
1.0
 17
4.0
 27
-5.097222222222222
 37
0.0
 42
50.0
 43
0.0
 44
0.0
 45
734.0
 50
0.0
 51
0.0
 72
   100
 90
   557152
  1

281
     0
 71
     1
 74
     0
110
0.0
120
0.0
130
0.0
111
1.0
121
0.0
131
0.0
112
0.0
122
1.0
132
0.0
 79
     0
146
0.0
170
     0
  0
ENDSEC
  0
SECTION
  2
OBJECTS
  0
DICTIONARY
  5
C
330
0
100
AcDbDictionary
281
     1
  3
ACAD_GROUP
350
D
  3
ACAD_LAYOUT
350
1A
  3
ACAD_MLEADERSTYLE
350
1AC
  3
ACAD_MLINESTYLE
350
17
  3
ACAD_PLOTSETTINGS
350
19
  3
ACAD_PLOTSTYLENAME
350
E
  3
ACAD_SCALELIST
350
3C
  3
ACAD_TABLESTYLE
350
1AB
  3
ACAD_VISUALSTYLE
350
2A
  3
AcDbVariableDictionary
350
1A9
  0
DICTIONARY
  5
D
102
{ACAD_REACTORS
330
C
102
}
330
C
100
AcDbDictionary
281
     1
  0
DICTIONARY
  5
1A
102
{ACAD_REACTORS
330
C
102
}
330
C
100
AcDbDictionary
281
     1
  3
Model
350
22
  3
Working Layout
350
1A4
  0
DICTIONARY
  5
1AC
102
{ACAD_REACTORS
330
C
102
}
330
C
100
AcDbDictionary
281
     1
  0
DICTIONARY
  5
17
102
{ACAD_REACTORS
330
C
102
}
330
C
100
AcDbDictionary
281
     1
  3
Standard
350
18
  0
DICTIONARY
  5
19
102
{ACAD_REACTORS
330
C
102
}
330
C
100
AcDbDictionary
281
     1
  0
ACDBDICTIONARYWDFLT
  5
E
102
{ACAD_REACTORS
330
C
102
}
330
C
100
AcDbDictionary
281
     1
  3
Normal
350
F
100
AcDbDictionaryWithDefault
340
F
  0
DICTIONARY
  5
3C
102
{ACAD_REACTORS
330
C
102
}
330
C
100
AcDbDictionary
281
     1
  3
A0
350
3D
  3
A1
350
3E
  3
A2
350
3F
  3
A3
350
40
  3
A4
350
41
  3
A5
350
42
  3
A6
350
43
  3
A7
350
44
  3
A8
350
45
  3
A9
350
46
  3
B0
350
47
  3
B1
350
48
  3
B2
350
49
  3
B3
350
4A
  3
B4
350
4B
  3
B5
350
4C
  3
B6
350
4D
  3
B7
350
4E
  3
B8
350
4F
  3
B9
350
50
  3
C0
350
51
  3
C1
350
52
  3
C2
350
53
  3
C3
350
54
  3
C4
350
55
  3
C5
350
56
  3
C6
350
57
  3
C7
350
58
  3
C8
350
59
  3
C9
350
5A
  3
D0
350
5B
  3
D1
350
5C
  3
D2
350
5D
  0
DICTIONARY
  5
1AB
102
{ACAD_REACTORS
330
C
102
}
330
C
100
AcDbDictionary
281
     1
  0
DICTIONARY
  5
2A
102
{ACAD_REACTORS
330
C
102
}
330
C
100
AcDbDictionary
281
     1
  3
2dWireframe
350
2F
  3
3D Hidden
350
31
  3
3dWireframe
350
30
  3
Basic
350
32
  3
Brighten
350
36
  3
ColorChange
350
3A
  3
Conceptual
350
34
  3
Dim
350
35
  3
Facepattern
350
39
  3
Flat
350
2B
  3
FlatWithEdges
350
2C
  3
Gouraud
350
2D
  3
GouraudWithEdges
350
2E
  3
Linepattern
350
38
  3
Realistic
350
33
  3
Thicken
350
37
  0
DICTIONARY
  5
1A9
102
{ACAD_REACTORS
330
C
102
}
330
C
100
AcDbDictionary
281
     1
  3
CANNOSCALE
350
1AA
  0
LAYOUT
  5
22
102
{ACAD_REACTORS
330
1A
102
}
330
1A
100
AcDbPlotSettings
  1

  2
none_device
  4

  6

 40
0.0
 41
0.0
 42
0.0
 43
0.0
 44
0.0
 45
0.0
 46
0.0
 47
0.0
 48
0.0
 49
0.0
140
0.0
141
0.0
142
1.0
143
1.0
 70
  1712
 72
     0
 73
     0
 74
     0
  7

 75
     0
 76
     0
 77
     2
 78
   300
147
1.0
148
0.0
149
0.0
100
AcDbLayout
  1
Model
 70
     1
 71
     0
 10
0.0
 20
0.0
 11
12.0
 21
9.0
 12
0.0
 22
0.0
 32
0.0
 14
1.000000000000000E+20
 24
1.000000000000000E+20
 34
1.000000000000000E+20
 15
-1.000000000000000E+20
 25
-1.000000000000000E+20
 35
-1.000000000000000E+20
146
0.0
 13
0.0
 23
0.0
 33
0.0
 16
1.0
 26
0.0
 36
0.0
 17
0.0
 27
1.0
 37
0.0
 76
     0
330
1F
331
29
  0
LAYOUT
  5
1A4
102
{ACAD_REACTORS
330
1A
102
}
330
1A
100
AcDbPlotSettings
  1

  2
none_device
  4
ANSI_A_(11.00_x_8.50_Inches)
  6

 40
6.35
 41
19.05
 42
6.35000508
 43
19.05000254
 44
279.4
 45
215.9
 46
0.0
 47
0.0
 48
0.0
 49
0.0
140
0.0
141
0.0
142
1.0
143
1.0
 70
   688
 72
     0
 73
     1
 74
     5
  7

 75
    16
 76
     0
 77
     2
 78
   300
147
1.0
148
0.0
149
0.0
100
AcDbLayout
  1
Working Layout
 70
     1
 71
     1
 10
-0.25
 20
-0.25
 11
10.75
 21
8.25
 12
0.0
 22
0.0
 32
0.0
 14
0.0
 24
0.0
 34
0.0
 15
0.0
 25
0.0
 35
0.0
146
0.0
 13
0.0
 23
0.0
 33
0.0
 16
1.0
 26
0.0
 36
0.0
 17
0.0
 27
1.0
 37
0.0
 76
     0
330
1A3
331
1A7
  0
MLINESTYLE
  5
18
102
{ACAD_REACTORS
330
17
102
}
330
17
100
AcDbMlineStyle
  2
Standard
 70
     0
  3

 62
   256
 51
90.0
 52
90.0
 71
     2
 49
0.5
 62
   256
  6
BYLAYER
 49
-0.5
 62
   256
  6
BYLAYER
  0
ACDBPLACEHOLDER
  5
F
102
{ACAD_REACTORS
330
E
102
}
330
E
  0
SCALE
  5
3D
102
{ACAD_REACTORS
330
3C
102
}
330
3C
100
AcDbScale
 70
     0
300
1:1
140
1.0
141
1.0
290
     1
  0
SCALE
  5
3E
102
{ACAD_REACTORS
330
3C
102
}
330
3C
100
AcDbScale
 70
     0
300
1:2
140
1.0
141
2.0
290
     0
  0
SCALE
  5
3F
102
{ACAD_REACTORS
330
3C
102
}
330
3C
100
AcDbScale
 70
     0
300
1:4
140
1.0
141
4.0
290
     0
  0
SCALE
  5
40
102
{ACAD_REACTORS
330
3C
102
}
330
3C
100
AcDbScale
 70
     0
300
1:5
140
1.0
141
5.0
290
     0
  0
SCALE
  5
41
102
{ACAD_REACTORS
330
3C
102
}
330
3C
100
AcDbScale
 70
     0
300
1:8
140
1.0
141
8.0
290
     0
  0
SCALE
  5
42
102
{ACAD_REACTORS
330
3C
102
}
330
3C
100
AcDbScale
 70
     0
300
1:10
140
1.0
141
10.0
290
     0
  0
SCALE
  5
43
102
{ACAD_REACTORS
330
3C
102
}
330
3C
100
AcDbScale
 70
     0
300
1:16
140
1.0
141
16.0
290
     0
  0
SCALE
  5
44
102
{ACAD_REACTORS
330
3C
102
}
330
3C
100
AcDbScale
 70
     0
300
1:20
140
1.0
141
20.0
290
     0
  0
SCALE
  5
45
102
{ACAD_REACTORS
330
3C
102
}
330
3C
100
AcDbScale
 70
     0
300
1:30
140
1.0
141
30.0
290
     0
  0
SCALE
  5
46
102
{ACAD_REACTORS
330
3C
102
}
330
3C
100
AcDbScale
 70
     0
300
1:40
140
1.0
141
40.0
290
     0
  0
SCALE
  5
47
102
{ACAD_REACTORS
330
3C
102
}
330
3C
100
AcDbScale
 70
     0
300
1:50
140
1.0
141
50.0
290
     0
  0
SCALE
  5
48
102
{ACAD_REACTORS
330
3C
102
}
330
3C
100
AcDbScale
 70
     0
300
1:100
140
1.0
141
100.0
290
     0
  0
SCALE
  5
49
102
{ACAD_REACTORS
330
3C
102
}
330
3C
100
AcDbScale
 70
     0
300
2:1
140
2.0
141
1.0
290
     0
  0
SCALE
  5
4A
102
{ACAD_REACTORS
330
3C
102
}
330
3C
100
AcDbScale
 70
     0
300
4:1
140
4.0
141
1.0
290
     0
  0
SCALE
  5
4B
102
{ACAD_REACTORS
330
3C
102
}
330
3C
100
AcDbScale
 70
     0
300
8:1
140
8.0
141
1.0
290
     0
  0
SCALE
  5
4C
102
{ACAD_REACTORS
330
3C
102
}
330
3C
100
AcDbScale
 70
     0
300
10:1
140
10.0
141
1.0
290
     0
  0
SCALE
  5
4D
102
{ACAD_REACTORS
330
3C
102
}
330
3C
100
AcDbScale
 70
     0
300
100:1
140
100.0
141
1.0
290
     0
  0
SCALE
  5
4E
102
{ACAD_REACTORS
330
3C
102
}
330
3C
100
AcDbScale
 70
     0
300
1/128" = 1'-0"
140
0.0078125
141
12.0
290
     0
  0
SCALE
  5
4F
102
{ACAD_REACTORS
330
3C
102
}
330
3C
100
AcDbScale
 70
     0
300
1/64" = 1'-0"
140
0.015625
141
12.0
290
     0
  0
SCALE
  5
50
102
{ACAD_REACTORS
330
3C
102
}
330
3C
100
AcDbScale
 70
     0
300
1/32" = 1'-0"
140
0.03125
141
12.0
290
     0
  0
SCALE
  5
51
102
{ACAD_REACTORS
330
3C
102
}
330
3C
100
AcDbScale
 70
     0
300
1/16" = 1'-0"
140
0.0625
141
12.0
290
     0
  0
SCALE
  5
52
102
{ACAD_REACTORS
330
3C
102
}
330
3C
100
AcDbScale
 70
     0
300
3/32" = 1'-0"
140
0.09375
141
12.0
290
     0
  0
SCALE
  5
53
102
{ACAD_REACTORS
330
3C
102
}
330
3C
100
AcDbScale
 70
     0
300
1/8" = 1'-0"
140
0.125
141
12.0
290
     0
  0
SCALE
  5
54
102
{ACAD_REACTORS
330
3C
102
}
330
3C
100
AcDbScale
 70
     0
300
3/16" = 1'-0"
140
0.1875
141
12.0
290
     0
  0
SCALE
  5
55
102
{ACAD_REACTORS
330
3C
102
}
330
3C
100
AcDbScale
 70
     0
300
1/4" = 1'-0"
140
0.25
141
12.0
290
     0
  0
SCALE
  5
56
102
{ACAD_REACTORS
330
3C
102
}
330
3C
100
AcDbScale
 70
     0
300
3/8" = 1'-0"
140
0.375
141
12.0
290
     0
  0
SCALE
  5
57
102
{ACAD_REACTORS
330
3C
102
}
330
3C
100
AcDbScale
 70
     0
300
1/2" = 1'-0"
140
0.5
141
12.0
290
     0
  0
SCALE
  5
58
102
{ACAD_REACTORS
330
3C
102
}
330
3C
100
AcDbScale
 70
     0
300
3/4" = 1'-0"
140
0.75
141
12.0
290
     0
  0
SCALE
  5
59
102
{ACAD_REACTORS
330
3C
102
}
330
3C
100
AcDbScale
 70
     0
300
1" = 1'-0"
140
1.0
141
12.0
290
     0
  0
SCALE
  5
5A
102
{ACAD_REACTORS
330
3C
102
}
330
3C
100
AcDbScale
 70
     0
300
1-1/2" = 1'-0"
140
1.5
141
12.0
290
     0
  0
SCALE
  5
5B
102
{ACAD_REACTORS
330
3C
102
}
330
3C
100
AcDbScale
 70
     0
300
3" = 1'-0"
140
3.0
141
12.0
290
     0
  0
SCALE
  5
5C
102
{ACAD_REACTORS
330
3C
102
}
330
3C
100
AcDbScale
 70
     0
300
6" = 1'-0"
140
6.0
141
12.0
290
     0
  0
SCALE
  5
5D
102
{ACAD_REACTORS
330
3C
102
}
330
3C
100
AcDbScale
 70
     0
300
1'-0" = 1'-0"
140
12.0
141
12.0
290
     0
  0
VISUALSTYLE
  5
2F
102
{ACAD_REACTORS
330
2A
102
}
330
2A
100
AcDbVisualStyle
  2
2dWireframe
 70
     4
 71
     0
 72
     2
 73
     0
 90
        0
 40
-0.6
 41
-30.0
 62
     5
 63
     7
421
 16777215
 74
     1
 91
        4
 64
     7
 65
   257
 75
     1
175
     1
 42
1.0
 92
        0
 66
   257
 43
1.0
 76
     1
 77
     6
 78
     2
 67
     7
 79
     5
170
     0
171
     0
290
     0
174
     0
 93
        1
 44
0.0
173
     0
291
     0
 45
0.0
1001
ACAD
1000
AcDbSavedByObjectVersion
1070
     0
  0
VISUALSTYLE
  5
31
102
{ACAD_REACTORS
330
2A
102
}
330
2A
100
AcDbVisualStyle
  2
3D Hidden
 70
     6
 71
     1
 72
     2
 73
     2
 90
        0
 40
-0.6
 41
-30.0
 62
     5
 63
     7
421
 16777215
 74
     2
 91
        2
 64
     7
 65
   257
 75
     2
175
     1
 42
40.0
 92
        0
 66
   257
 43
1.0
 76
     1
 77
     6
 78
     2
 67
     7
 79
     3
170
     0
171
     0
290
     0
174
     0
 93
        1
 44
0.0
173
     0
291
     0
 45
0.0
1001
ACAD
1000
AcDbSavedByObjectVersion
1070
     0
  0
VISUALSTYLE
  5
30
102
{ACAD_REACTORS
330
2A
102
}
330
2A
100
AcDbVisualStyle
  2
3dWireframe
 70
     5
 71
     0
 72
     2
 73
     0
 90
        0
 40
-0.6
 41
-30.0
 62
     5
 63
     7
421
 16777215
 74
     1
 91
        4
 64
     7
 65
   257
 75
     1
175
     1
 42
1.0
 92
        0
 66
   257
 43
1.0
 76
     1
 77
     6
 78
     2
 67
     7
 79
     5
170
     0
171
     0
290
     0
174
     0
 93
        1
 44
0.0
173
     0
291
     0
 45
0.0
1001
ACAD
1000
AcDbSavedByObjectVersion
1070
     0
  0
VISUALSTYLE
  5
32
102
{ACAD_REACTORS
330
2A
102
}
330
2A
100
AcDbVisualStyle
  2
Basic
 70
     7
 71
     1
 72
     0
 73
     1
 90
        0
 40
-0.6
 41
-30.0
 62
     5
 63
     7
421
 16777215
 74
     0
 91
        4
 64
     7
 65
   257
 75
     1
175
     1
 42
1.0
 92
        8
 66
     7
 43
1.0
 76
     1
 77
     6
 78
     2
 67
     7
 79
     5
170
     0
171
     0
290
     0
174
     0
 93
        1
 44
0.0
173
     0
291
     1
 45
0.0
1001
ACAD
1000
AcDbSavedByObjectVersion
1070
     0
  0
VISUALSTYLE
  5
36
102
{ACAD_REACTORS
330
2A
102
}
330
2A
100
AcDbVisualStyle
  2
Brighten
 70
    12
 71
     2
 72
     2
 73
     0
 90
        0
 40
-0.6
 41
-30.0
 62
     5
 63
     7
421
 16777215
 74
     1
 91
        4
 64
     7
 65
   257
 75
     1
175
     1
 42
1.0
 92
        8
 66
     7
 43
1.0
 76
     1
 77
     6
 78
     2
 67
     7
 79
     5
170
     0
171
     0
290
     0
174
     0
 93
        1
 44
50.0
173
     0
291
     1
 45
0.0
1001
ACAD
1000
AcDbSavedByObjectVersion
1070
     0
  0
VISUALSTYLE
  5
3A
102
{ACAD_REACTORS
330
2A
102
}
330
2A
100
AcDbVisualStyle
  2
ColorChange
 70
    16
 71
     2
 72
     2
 73
     3
 90
        0
 40
-0.6
 41
-30.0
 62
     5
 63
     8
421
  8421504
 74
     1
 91
        4
 64
     7
 65
   257
 75
     1
175
     1
 42
1.0
 92
        8
 66
     8
424
  8421504
 43
1.0
 76
     1
 77
     6
 78
     2
 67
     7
 79
     5
170
     0
171
     0
290
     0
174
     0
 93
        1
 44
0.0
173
     0
291
     1
 45
0.0
1001
ACAD
1000
AcDbSavedByObjectVersion
1070
     0
  0
VISUALSTYLE
  5
34
102
{ACAD_REACTORS
330
2A
102
}
330
2A
100
AcDbVisualStyle
  2
Conceptual
 70
     9
 71
     3
 72
     2
 73
     0
 90
        0
 40
-0.6
 41
-30.0
 62
     5
 63
     7
421
 16777215
 74
     2
 91
        2
 64
     7
 65
   257
 75
     1
175
     1
 42
40.0
 92
        8
 66
     7
 43
1.0
 76
     1
 77
     6
 78
     2
 67
     7
 79
     3
170
     0
171
     0
290
     0
174
     0
 93
        1
 44
0.0
173
     0
291
     0
 45
0.0
1001
ACAD
1000
AcDbSavedByObjectVersion
1070
     0
  0
VISUALSTYLE
  5
35
102
{ACAD_REACTORS
330
2A
102
}
330
2A
100
AcDbVisualStyle
  2
Dim
 70
    11
 71
     2
 72
     2
 73
     0
 90
        0
 40
-0.6
 41
-30.0
 62
     5
 63
     7
421
 16777215
 74
     1
 91
        4
 64
     7
 65
   257
 75
     1
175
     1
 42
1.0
 92
        8
 66
     7
 43
1.0
 76
     1
 77
     6
 78
     2
 67
     7
 79
     5
170
     0
171
     0
290
     0
174
     0
 93
        1
 44
-50.0
173
     0
291
     1
 45
0.0
1001
ACAD
1000
AcDbSavedByObjectVersion
1070
     0
  0
VISUALSTYLE
  5
39
102
{ACAD_REACTORS
330
2A
102
}
330
2A
100
AcDbVisualStyle
  2
Facepattern
 70
    15
 71
     2
 72
     2
 73
     0
 90
        0
 40
-0.6
 41
-30.0
 62
     5
 63
     7
421
 16777215
 74
     1
 91
        4
 64
     7
 65
   257
 75
     1
175
     1
 42
1.0
 92
        8
 66
     7
 43
1.0
 76
     1
 77
     6
 78
     2
 67
     7
 79
     5
170
     0
171
     0
290
     0
174
     0
 93
        1
 44
0.0
173
     0
291
     1
 45
0.0
1001
ACAD
1000
AcDbSavedByObjectVersion
1070
     0
  0
VISUALSTYLE
  5
2B
102
{ACAD_REACTORS
330
2A
102
}
330
2A
100
AcDbVisualStyle
  2
Flat
 70
     0
 71
     2
 72
     1
 73
     1
 90
        2
 40
-0.6
 41
30.0
 62
     5
 63
     7
421
 16777215
 74
     0
 91
        4
 64
     7
 65
   257
 75
     1
175
     1
 42
1.0
 92
        8
 66
     7
 43
1.0
 76
     1
 77
     6
 78
     2
 67
     7
 79
     5
170
     0
171
     0
290
     0
174
     0
 93
       13
 44
0.0
173
     0
291
     1
 45
0.0
1001
ACAD
1000
AcDbSavedByObjectVersion
1070
     0
  0
VISUALSTYLE
  5
2C
102
{ACAD_REACTORS
330
2A
102
}
330
2A
100
AcDbVisualStyle
  2
FlatWithEdges
 70
     1
 71
     2
 72
     1
 73
     1
 90
        2
 40
-0.6
 41
30.0
 62
     5
 63
     7
421
 16777215
 74
     1
 91
        4
 64
     7
 65
   257
 75
     1
175
     1
 42
1.0
 92
        0
 66
   257
 43
1.0
 76
     1
 77
     6
 78
     2
 67
     7
 79
     5
170
     0
171
     0
290
     0
174
     0
 93
       13
 44
0.0
173
     0
291
     1
 45
0.0
1001
ACAD
1000
AcDbSavedByObjectVersion
1070
     0
  0
VISUALSTYLE
  5
2D
102
{ACAD_REACTORS
330
2A
102
}
330
2A
100
AcDbVisualStyle
  2
Gouraud
 70
     2
 71
     2
 72
     2
 73
     1
 90
        2
 40
-0.6
 41
30.0
 62
     5
 63
     7
421
 16777215
 74
     0
 91
        4
 64
     7
 65
   257
 75
     1
175
     1
 42
1.0
 92
        0
 66
     7
 43
1.0
 76
     1
 77
     6
 78
     2
 67
     7
 79
     5
170
     0
171
     0
290
     0
174
     0
 93
       13
 44
0.0
173
     0
291
     1
 45
0.0
1001
ACAD
1000
AcDbSavedByObjectVersion
1070
     0
  0
VISUALSTYLE
  5
2E
102
{ACAD_REACTORS
330
2A
102
}
330
2A
100
AcDbVisualStyle
  2
GouraudWithEdges
 70
     3
 71
     2
 72
     2
 73
     1
 90
        2
 40
-0.6
 41
30.0
 62
     5
 63
     7
421
 16777215
 74
     1
 91
        4
 64
     7
 65
   257
 75
     1
175
     1
 42
1.0
 92
        0
 66
   257
 43
1.0
 76
     1
 77
     6
 78
     2
 67
     7
 79
     5
170
     0
171
     0
290
     0
174
     0
 93
       13
 44
0.0
173
     0
291
     1
 45
0.0
1001
ACAD
1000
AcDbSavedByObjectVersion
1070
     0
  0
VISUALSTYLE
  5
38
102
{ACAD_REACTORS
330
2A
102
}
330
2A
100
AcDbVisualStyle
  2
Linepattern
 70
    14
 71
     2
 72
     2
 73
     0
 90
        0
 40
-0.6
 41
-30.0
 62
     5
 63
     7
421
 16777215
 74
     1
 91
        4
 64
     7
 65
   257
 75
     7
175
     7
 42
1.0
 92
        8
 66
     7
 43
1.0
 76
     1
 77
     6
 78
     2
 67
     7
 79
     5
170
     0
171
     0
290
     0
174
     0
 93
        1
 44
0.0
173
     0
291
     1
 45
0.0
1001
ACAD
1000
AcDbSavedByObjectVersion
1070
     0
  0
VISUALSTYLE
  5
33
102
{ACAD_REACTORS
330
2A
102
}
330
2A
100
AcDbVisualStyle
  2
Realistic
 70
     8
 71
     2
 72
     2
 73
     0
 90
        0
 40
-0.6
 41
-30.0
 62
     5
 63
     7
421
 16777215
 74
     1
 91
        0
 64
     7
 65
   257
 75
     1
175
     1
 42
1.0
 92
        8
 66
     8
424
  7895160
 43
1.0
 76
     1
 77
     6
 78
     2
 67
     7
 79
     5
170
     0
171
     0
290
     0
174
     0
 93
       13
 44
0.0
173
     0
291
     0
 45
0.0
1001
ACAD
1000
AcDbSavedByObjectVersion
1070
     0
  0
VISUALSTYLE
  5
37
102
{ACAD_REACTORS
330
2A
102
}
330
2A
100
AcDbVisualStyle
  2
Thicken
 70
    13
 71
     2
 72
     2
 73
     0
 90
        0
 40
-0.6
 41
-30.0
 62
     5
 63
     7
421
 16777215
 74
     1
 91
        4
 64
     7
 65
   257
 75
     1
175
     1
 42
1.0
 92
       12
 66
     7
 43
1.0
 76
     1
 77
     6
 78
     2
 67
     7
 79
     5
170
     0
171
     0
290
     0
174
     0
 93
        1
 44
0.0
173
     0
291
     1
 45
0.0
1001
ACAD
1000
AcDbSavedByObjectVersion
1070
     0
  0
DICTIONARYVAR
  5
1AA
102
{ACAD_REACTORS
330
1A9
102
}
330
1A9
100
DictionaryVariables
280
     0
  1
1:1
  0
ENDSEC
  0
EOF
